  0
SECTION
  2
HEADER
  9
$ACADVER
  1
AC1027
  9
$ACADMAINTVER
 70
   105
  9
$DWGCODEPAGE
  3
ANSI_1250
  9
$REQUIREDVERSIONS
160
                 0
  9
$INSBASE
 10
0.0
 20
0.0
 30
0.0
  9
$EXTMIN
 10
1.000000000000000E+20
 20
1.000000000000000E+20
 30
1.000000000000000E+20
  9
$EXTMAX
 10
-1.000000000000000E+20
 20
-1.000000000000000E+20
 30
-1.000000000000000E+20
  9
$LIMMIN
 10
0.0
 20
0.0
  9
$LIMMAX
 10
12.0
 20
9.0
  9
$ORTHOMODE
 70
     0
  9
$REGENMODE
 70
     1
  9
$FILLMODE
 70
     1
  9
$QTEXTMODE
 70
     0
  9
$MIRRTEXT
 70
     1
  9
$LTSCALE
 40
1.0
  9
$ATTMODE
 70
     1
  9
$TEXTSIZE
 40
0.2
  9
$TRACEWID
 40
0.05
  9
$TEXTSTYLE
  7
Standard
  9
$CLAYER
  8
0
  9
$CELTYPE
  6
ByLayer
  9
$CECOLOR
 62
   256
  9
$CELTSCALE
 40
1.0
  9
$DISPSILH
 70
     0
  9
$DIMSCALE
 40
1.0
  9
$DIMASZ
 40
0.18
  9
$DIMEXO
 40
0.0625
  9
$DIMDLI
 40
0.38
  9
$DIMRND
 40
0.0
  9
$DIMDLE
 40
0.0
  9
$DIMEXE
 40
0.18
  9
$DIMTP
 40
0.0
  9
$DIMTM
 40
0.0
  9
$DIMTXT
 40
0.18
  9
$DIMCEN
 40
0.09
  9
$DIMTSZ
 40
0.0
  9
$DIMTOL
 70
     0
  9
$DIMLIM
 70
     0
  9
$DIMTIH
 70
     1
  9
$DIMTOH
 70
     1
  9
$DIMSE1
 70
     0
  9
$DIMSE2
 70
     0
  9
$DIMTAD
 70
     0
  9
$DIMZIN
 70
     0
  9
$DIMBLK
  1

  9
$DIMASO
 70
     1
  9
$DIMSHO
 70
     1
  9
$DIMPOST
  1

  9
$DIMAPOST
  1

  9
$DIMALT
 70
     0
  9
$DIMALTD
 70
     2
  9
$DIMALTF
 40
25.4
  9
$DIMLFAC
 40
1.0
  9
$DIMTOFL
 70
     0
  9
$DIMTVP
 40
0.0
  9
$DIMTIX
 70
     0
  9
$DIMSOXD
 70
     0
  9
$DIMSAH
 70
     0
  9
$DIMBLK1
  1

  9
$DIMBLK2
  1

  9
$DIMSTYLE
  2
Standard
  9
$DIMCLRD
 70
     0
  9
$DIMCLRE
 70
     0
  9
$DIMCLRT
 70
     0
  9
$DIMTFAC
 40
1.0
  9
$DIMGAP
 40
0.09
  9
$DIMJUST
 70
     0
  9
$DIMSD1
 70
     0
  9
$DIMSD2
 70
     0
  9
$DIMTOLJ
 70
     1
  9
$DIMTZIN
 70
     0
  9
$DIMALTZ
 70
     0
  9
$DIMALTTZ
 70
     0
  9
$DIMUPT
 70
     0
  9
$DIMDEC
 70
     4
  9
$DIMTDEC
 70
     4
  9
$DIMALTU
 70
     2
  9
$DIMALTTD
 70
     2
  9
$DIMTXSTY
  7
Standard
  9
$DIMAUNIT
 70
     0
  9
$DIMADEC
 70
     0
  9
$DIMALTRND
 40
0.0
  9
$DIMAZIN
 70
     0
  9
$DIMDSEP
 70
    46
  9
$DIMATFIT
 70
     3
  9
$DIMFRAC
 70
     0
  9
$DIMLDRBLK
  1

  9
$DIMLUNIT
 70
     2
  9
$DIMLWD
 70
    -2
  9
$DIMLWE
 70
    -2
  9
$DIMTMOVE
 70
     0
  9
$DIMFXL
 40
1.0
  9
$DIMFXLON
 70
     0
  9
$DIMJOGANG
 40
0.7853981633974483
  9
$DIMTFILL
 70
     0
  9
$DIMTFILLCLR
 70
     0
  9
$DIMARCSYM
 70
     0
  9
$DIMLTYPE
  6

  9
$DIMLTEX1
  6

  9
$DIMLTEX2
  6

  9
$DIMTXTDIRECTION
 70
     0
  9
$LUNITS
 70
     2
  9
$LUPREC
 70
     4
  9
$SKETCHINC
 40
0.1
  9
$FILLETRAD
 40
0.5
  9
$AUNITS
 70
     0
  9
$AUPREC
 70
     0
  9
$MENU
  1
.
  9
$ELEVATION
 40
0.0
  9
$PELEVATION
 40
0.0
  9
$THICKNESS
 40
0.0
  9
$LIMCHECK
 70
     0
  9
$CHAMFERA
 40
0.5
  9
$CHAMFERB
 40
0.5
  9
$CHAMFERC
 40
1.0
  9
$CHAMFERD
 40
0.0
  9
$SKPOLY
 70
     0
  9
$TDCREATE
 40
2451380.847099063
  9
$TDUCREATE
 40
2451380.805432396
  9
$TDUPDATE
 40
2451380.882847222
  9
$TDUUPDATE
 40
2451380.841180556
  9
$TDINDWG
 40
0.0075627083
  9
$TDUSRTIMER
 40
0.0075536690
  9
$USRTIMER
 70
     1
  9
$ANGBASE
 50
0.0
  9
$ANGDIR
 70
     0
  9
$PDMODE
 70
     0
  9
$PDSIZE
 40
0.0
  9
$PLINEWID
 40
0.0
  9
$SPLFRAME
 70
     0
  9
$SPLINETYPE
 70
     6
  9
$SPLINESEGS
 70
     8
  9
$HANDSEED
  5
10C
  9
$SURFTAB1
 70
     6
  9
$SURFTAB2
 70
     6
  9
$SURFTYPE
 70
     6
  9
$SURFU
 70
     6
  9
$SURFV
 70
     6
  9
$UCSBASE
  2

  9
$UCSNAME
  2

  9
$UCSORG
 10
0.0
 20
0.0
 30
0.0
  9
$UCSXDIR
 10
1.0
 20
0.0
 30
0.0
  9
$UCSYDIR
 10
0.0
 20
1.0
 30
0.0
  9
$UCSORTHOREF
  2

  9
$UCSORTHOVIEW
 70
     0
  9
$UCSORGTOP
 10
0.0
 20
0.0
 30
0.0
  9
$UCSORGBOTTOM
 10
0.0
 20
0.0
 30
0.0
  9
$UCSORGLEFT
 10
0.0
 20
0.0
 30
0.0
  9
$UCSORGRIGHT
 10
0.0
 20
0.0
 30
0.0
  9
$UCSORGFRONT
 10
0.0
 20
0.0
 30
0.0
  9
$UCSORGBACK
 10
0.0
 20
0.0
 30
0.0
  9
$PUCSBASE
  2

  9
$PUCSNAME
  2

  9
$PUCSORG
 10
0.0
 20
0.0
 30
0.0
  9
$PUCSXDIR
 10
1.0
 20
0.0
 30
0.0
  9
$PUCSYDIR
 10
0.0
 20
1.0
 30
0.0
  9
$PUCSORTHOREF
  2

  9
$PUCSORTHOVIEW
 70
     0
  9
$PUCSORGTOP
 10
0.0
 20
0.0
 30
0.0
  9
$PUCSORGBOTTOM
 10
0.0
 20
0.0
 30
0.0
  9
$PUCSORGLEFT
 10
0.0
 20
0.0
 30
0.0
  9
$PUCSORGRIGHT
 10
0.0
 20
0.0
 30
0.0
  9
$PUCSORGFRONT
 10
0.0
 20
0.0
 30
0.0
  9
$PUCSORGBACK
 10
0.0
 20
0.0
 30
0.0
  9
$USERI1
 70
     0
  9
$USERI2
 70
     0
  9
$USERI3
 70
     0
  9
$USERI4
 70
     0
  9
$USERI5
 70
     0
  9
$USERR1
 40
0.0
  9
$USERR2
 40
0.0
  9
$USERR3
 40
0.0
  9
$USERR4
 40
0.0
  9
$USERR5
 40
0.0
  9
$WORLDVIEW
 70
     1
  9
$SHADEDGE
 70
     3
  9
$SHADEDIF
 70
    70
  9
$TILEMODE
 70
     1
  9
$MAXACTVP
 70
    64
  9
$PINSBASE
 10
0.0
 20
0.0
 30
0.0
  9
$PLIMCHECK
 70
     0
  9
$PEXTMIN
 10
1.000000000000000E+20
 20
1.000000000000000E+20
 30
1.000000000000000E+20
  9
$PEXTMAX
 10
-1.000000000000000E+20
 20
-1.000000000000000E+20
 30
-1.000000000000000E+20
  9
$PLIMMIN
 10
0.0
 20
0.0
  9
$PLIMMAX
 10
12.0
 20
9.0
  9
$UNITMODE
 70
     0
  9
$VISRETAIN
 70
     1
  9
$PLINEGEN
 70
     0
  9
$PSLTSCALE
 70
     1
  9
$TREEDEPTH
 70
  3020
  9
$CMLSTYLE
  2
Standard
  9
$CMLJUST
 70
     0
  9
$CMLSCALE
 40
1.0
  9
$PROXYGRAPHICS
 70
     1
  9
$MEASUREMENT
 70
     1
  9
$CELWEIGHT
370
    -1
  9
$ENDCAPS
280
     0
  9
$JOINSTYLE
280
     0
  9
$LWDISPLAY
290
     0
  9
$INSUNITS
 70
     5
  9
$HYPERLINKBASE
  1

  9
$STYLESHEET
  1

  9
$XEDIT
290
     1
  9
$CEPSNTYPE
380
     0
  9
$PSTYLEMODE
290
     1
  9
$FINGERPRINTGUID
  2
{12F50282-3ED8-11D3-A8B7-0060B0F84BC6}
  9
$VERSIONGUID
  2
{12F50293-3ED8-11D3-A8B7-0060B0F84BC6}
  9
$EXTNAMES
290
     1
  9
$PSVPSCALE
 40
0.0
  9
$OLESTARTUP
290
     0
  9
$SORTENTS
280
   127
  9
$INDEXCTL
280
     0
  9
$HIDETEXT
280
     0
  9
$XCLIPFRAME
280
     2
  9
$HALOGAP
280
     0
  9
$OBSCOLOR
 70
   257
  9
$OBSLTYPE
280
     0
  9
$INTERSECTIONDISPLAY
280
     0
  9
$INTERSECTIONCOLOR
 70
   257
  9
$DIMASSOC
280
     1
  9
$PROJECTNAME
  1

  9
$CAMERADISPLAY
290
     0
  9
$LENSLENGTH
 40
50.0
  9
$CAMERAHEIGHT
 40
0.0
  9
$STEPSPERSEC
 40
2.0
  9
$STEPSIZE
 40
6.0
  9
$3DDWFPREC
 40
2.0
  9
$PSOLWIDTH
 40
0.25
  9
$PSOLHEIGHT
 40
4.0
  9
$LOFTANG1
 40
1.570796326794896
  9
$LOFTANG2
 40
1.570796326794896
  9
$LOFTMAG1
 40
0.0
  9
$LOFTMAG2
 40
0.0
  9
$LOFTPARAM
 70
     7
  9
$LOFTNORMALS
280
     1
  9
$LATITUDE
 40
37.795
  9
$LONGITUDE
 40
-122.394
  9
$NORTHDIRECTION
 40
0.0
  9
$TIMEZONE
 70
 -8000
  9
$LIGHTGLYPHDISPLAY
280
     1
  9
$TILEMODELIGHTSYNCH
280
     1
  9
$CMATERIAL
347
AB
  9
$SOLIDHIST
280
     0
  9
$SHOWHIST
280
     1
  9
$DWFFRAME
280
     2
  9
$DGNFRAME
280
     0
  9
$REALWORLDSCALE
290
     1
  9
$INTERFERECOLOR
 62
     1
  9
$INTERFEREOBJVS
345
CD
  9
$INTERFEREVPVS
346
CA
  9
$CSHADOW
280
     0
  9
$SHADOWPLANELOCATION
 40
0.0
  0
ENDSEC
  0
SECTION
  2
CLASSES
  0
CLASS
  1
ACDBDICTIONARYWDFLT
  2
AcDbDictionaryWithDefault
  3
ObjectDBX Classes
 90
        0
 91
        1
280
     0
281
     0
  0
CLASS
  1
ACDBPLACEHOLDER
  2
AcDbPlaceHolder
  3
ObjectDBX Classes
 90
        0
 91
        2
280
     0
281
     0
  0
CLASS
  1
LAYOUT
  2
AcDbLayout
  3
ObjectDBX Classes
 90
        0
 91
        3
280
     0
281
     0
  0
CLASS
  1
MATERIAL
  2
AcDbMaterial
  3
ObjectDBX Classes
 90
     1153
 91
        3
280
     0
281
     0
  0
CLASS
  1
VISUALSTYLE
  2
AcDbVisualStyle
  3
ObjectDBX Classes
 90
     4095
 91
       24
280
     0
281
     0
  0
CLASS
  1
TABLESTYLE
  2
AcDbTableStyle
  3
ObjectDBX Classes
 90
     4095
 91
        1
280
     0
281
     0
  0
CLASS
  1
SCALE
  2
AcDbScale
  3
ObjectDBX Classes
 90
     1153
 91
       17
280
     0
281
     0
  0
CLASS
  1
MLEADERSTYLE
  2
AcDbMLeaderStyle
  3
ACDB_MLEADERSTYLE_CLASS
 90
     4095
 91
        1
280
     0
281
     0
  0
CLASS
  1
ACDBSECTIONVIEWSTYLE
  2
AcDbSectionViewStyle
  3
ObjectDBX Classes
 90
     1025
 91
        1
280
     0
281
     0
  0
CLASS
  1
ACDBDETAILVIEWSTYLE
  2
AcDbDetailViewStyle
  3
ObjectDBX Classes
 90
     1025
 91
        1
280
     0
281
     0
  0
CLASS
  1
MESH
  2
AcDbSubDMesh
  3
ObjectDBX Classes
 90
        0
 91
        2
280
     0
281
     1
  0
CLASS
  1
DICTIONARYVAR
  2
AcDbDictionaryVar
  3
ObjectDBX Classes
 90
        0
 91
        9
280
     0
281
     0
  0
CLASS
  1
CELLSTYLEMAP
  2
AcDbCellStyleMap
  3
ObjectDBX Classes
 90
     1152
 91
        1
280
     0
281
     0
  0
ENDSEC
  0
SECTION
  2
TABLES
  0
TABLE
  2
VPORT
  5
8
330
0
100
AcDbSymbolTable
 70
     1
  0
VPORT
  5
A8
330
8
100
AcDbSymbolTableRecord
100
AcDbViewportTableRecord
  2
*Active
 70
     0
 10
0.0
 20
0.0
 11
1.0
 21
1.0
 12
2466.30224609375
 22
1518.229370117187
 13
0.0
 23
0.0
 14
0.5
 24
0.5
 15
0.5
 25
0.5
 16
-1.0
 26
-1.0
 36
1.0
 17
0.0
 27
0.0
 37
0.0
 40
104.4708137493944
 41
1.168092146736198
 42
50.0
 43
0.0
 44
0.0
 50
0.0
 51
0.0
 71
     0
 72
   100
 73
     1
 74
     3
 75
     0
 76
     0
 77
     0
 78
     0
281
     0
 65
     1
110
0.0
120
0.0
130
0.0
111
1.0
121
0.0
131
0.0
112
0.0
122
1.0
132
0.0
 79
     0
146
0.0
348
C9
 60
     3
 61
     5
292
     1
282
     1
141
0.0
142
0.0
 63
   250
421
  3355443
  0
ENDTAB
  0
TABLE
  2
LTYPE
  5
5
330
0
100
AcDbSymbolTable
 70
     1
  0
LTYPE
  5
14
330
5
100
AcDbSymbolTableRecord
100
AcDbLinetypeTableRecord
  2
ByBlock
 70
     0
  3

 72
    65
 73
     0
 40
0.0
  0
LTYPE
  5
15
330
5
100
AcDbSymbolTableRecord
100
AcDbLinetypeTableRecord
  2
ByLayer
 70
     0
  3

 72
    65
 73
     0
 40
0.0
  0
LTYPE
  5
16
330
5
100
AcDbSymbolTableRecord
100
AcDbLinetypeTableRecord
  2
Continuous
 70
     0
  3
Solid line
 72
    65
 73
     0
 40
0.0
  0
ENDTAB
  0
TABLE
  2
LAYER
  5
2
330
0
100
AcDbSymbolTable
 70
     2
  0
LAYER
  5
10
330
2
100
AcDbSymbolTableRecord
100
AcDbLayerTableRecord
  2
0
 70
     0
 62
   153
420
  5804257
  6
Continuous
370
    -3
390
F
347
BB
348
0
  0
LAYER
  5
2B
330
2
100
AcDbSymbolTableRecord
100
AcDbLayerTableRecord
  2
ASHADE
 70
     4
 62
     7
  6
Continuous
370
    -3
390
2D
347
BB
348
0
  0
ENDTAB
  0
TABLE
  2
STYLE
  5
3
330
0
100
AcDbSymbolTable
 70
     2
  0
STYLE
  5
11
330
3
100
AcDbSymbolTableRecord
100
AcDbTextStyleTableRecord
  2
Standard
 70
     0
 40
0.0
 41
1.0
 50
0.0
 71
     0
 42
0.2
  3
txt
  4

  0
STYLE
  5
2C
330
3
100
AcDbSymbolTableRecord
100
AcDbTextStyleTableRecord
  2
ASHADE
 70
     0
 40
0.2
 41
1.0
 50
0.0
 71
     0
 42
0.2
  3
simplex
  4

  0
ENDTAB
  0
TABLE
  2
VIEW
  5
6
330
0
100
AcDbSymbolTable
 70
     0
  0
ENDTAB
  0
TABLE
  2
UCS
  5
7
330
0
100
AcDbSymbolTable
 70
     0
  0
ENDTAB
  0
TABLE
  2
APPID
  5
9
330
0
100
AcDbSymbolTable
 70
     6
  0
APPID
  5
12
330
9
100
AcDbSymbolTableRecord
100
AcDbRegAppTableRecord
  2
ACAD
 70
     0
  0
APPID
  5
8F
330
9
100
AcDbSymbolTableRecord
100
AcDbRegAppTableRecord
  2
AVE_RENDER
 70
     0
  0
APPID
  5
90
330
9
100
AcDbSymbolTableRecord
100
AcDbRegAppTableRecord
  2
AVE_ENTITY_MATERIAL
 70
     0
  0
APPID
  5
9C
330
9
100
AcDbSymbolTableRecord
100
AcDbRegAppTableRecord
  2
AVE_FINISH
 70
     0
  0
APPID
  5
9D
330
9
100
AcDbSymbolTableRecord
100
AcDbRegAppTableRecord
  2
AVE_MATERIAL
 70
     0
  0
APPID
  5
9E
330
9
100
AcDbSymbolTableRecord
100
AcDbRegAppTableRecord
  2
AVE_GLOBAL
 70
     0
  0
ENDTAB
  0
TABLE
  2
DIMSTYLE
  5
A
330
0
100
AcDbSymbolTable
 70
     1
100
AcDbDimStyleTable
 71
     0
  0
DIMSTYLE
105
27
330
A
100
AcDbSymbolTableRecord
100
AcDbDimStyleTableRecord
  2
Standard
 70
     0
340
11
  0
ENDTAB
  0
TABLE
  2
BLOCK_RECORD
  5
1
330
0
100
AcDbSymbolTable
 70
     6
  0
BLOCK_RECORD
  5
1F
330
1
100
AcDbSymbolTableRecord
100
AcDbBlockTableRecord
  2
*Model_Space
340
22
 70
     0
280
     1
281
     0
  0
BLOCK_RECORD
  5
1B
330
1
100
AcDbSymbolTableRecord
100
AcDbBlockTableRecord
  2
*Paper_Space
340
1E
 70
     0
280
     1
281
     0
  0
BLOCK_RECORD
  5
23
330
1
100
AcDbSymbolTableRecord
100
AcDbBlockTableRecord
  2
*Paper_Space0
340
26
 70
     0
280
     1
281
     0
  0
BLOCK_RECORD
  5
2E
330
1
100
AcDbSymbolTableRecord
100
AcDbBlockTableRecord
  2
direct
340
0
 70
     0
280
     1
281
     0
  0
BLOCK_RECORD
  5
42
330
1
100
AcDbSymbolTableRecord
100
AcDbBlockTableRecord
  2
overhead
340
0
 70
     0
280
     1
281
     0
  0
BLOCK_RECORD
  5
5F
330
1
100
AcDbSymbolTableRecord
100
AcDbBlockTableRecord
  2
sh_spot
340
0
 70
     0
280
     1
281
     0
  0
BLOCK_RECORD
  5
91
330
1
100
AcDbSymbolTableRecord
100
AcDbBlockTableRecord
  2
AVE_RENDER
340
0
102
{BLKREFS
331
94
331
95
331
96
331
97
331
98
331
99
331
9A
331
9B
102
}
 70
     0
280
     1
281
     0
  0
BLOCK_RECORD
  5
9F
330
1
100
AcDbSymbolTableRecord
100
AcDbBlockTableRecord
  2
AVE_GLOBAL
340
0
102
{BLKREFS
331
A2
102
}
 70
     0
280
     1
281
     0
  0
ENDTAB
  0
ENDSEC
  0
SECTION
  2
BLOCKS
  0
BLOCK
  5
20
330
1F
100
AcDbEntity
  8
0
100
AcDbBlockBegin
  2
*Model_Space
 70
     0
 10
0.0
 20
0.0
 30
0.0
  3
*Model_Space
  1

  0
ENDBLK
  5
21
330
1F
100
AcDbEntity
  8
0
100
AcDbBlockEnd
  0
BLOCK
  5
1C
330
1B
100
AcDbEntity
 67
     1
  8
0
100
AcDbBlockBegin
  2
*Paper_Space
 70
     0
 10
0.0
 20
0.0
 30
0.0
  3
*Paper_Space
  1

  0
ENDBLK
  5
1D
330
1B
100
AcDbEntity
 67
     1
  8
0
100
AcDbBlockEnd
  0
BLOCK
  5
24
330
23
100
AcDbEntity
 67
     1
  8
0
100
AcDbBlockBegin
  2
*Paper_Space0
 70
     0
 10
0.0
 20
0.0
 30
0.0
  3
*Paper_Space0
  1

  0
ENDBLK
  5
25
330
23
100
AcDbEntity
 67
     1
  8
0
100
AcDbBlockEnd
  0
BLOCK
  5
40
330
2E
100
AcDbEntity
  8
0
100
AcDbBlockBegin
  2
direct
 70
     2
 10
0.0
 20
0.0
 30
0.0
  3
direct
  1

  0
ATTDEF
  5
2F
330
2E
100
AcDbEntity
  8
ASHADE
  6
Continuous
 62
     1
100
AcDbText
 10
0.0
 20
-0.1
 30
0.0
 40
0.2
  1

  7
ASHADE
 72
     1
 11
0.0
 21
-0.1
 31
0.0
100
AcDbAttributeDefinition
280
     0
  3
Light Name
  2
SNAME
 70
     0
280
     0
  0
ARC
  5
30
330
2E
100
AcDbEntity
  8
ASHADE
  6
Continuous
 62
     7
100
AcDbCircle
 10
0.0
 20
0.0
 30
0.0
 40
0.3
100
AcDbArc
 50
205.6792886194569
 51
334.3207113805431
  0
ARC
  5
31
330
2E
100
AcDbEntity
  8
ASHADE
  6
Continuous
 62
     7
100
AcDbCircle
 10
0.0
 20
0.0
 30
0.0
 40
0.3
100
AcDbArc
 50
25.67928861945685
 51
154.3207113805431
  0
LINE
  5
32
330
2E
100
AcDbEntity
  8
ASHADE
  6
Continuous
 62
     7
100
AcDbLine
 10
-0.21
 20
0.2142428528562855
 30
0.0
 11
-0.21
 21
0.5
 31
0.0
  0
LINE
  5
33
330
2E
100
AcDbEntity
  8
ASHADE
  6
Continuous
 62
     7
100
AcDbLine
 10
-0.11
 20
0.2791057147390572
 30
0.0
 11
-0.11
 21
0.5
 31
0.0
  0
LINE
  5
34
330
2E
100
AcDbEntity
  8
ASHADE
  6
Continuous
 62
     7
100
AcDbLine
 10
0.21
 20
0.2142428528562855
 30
0.0
 11
0.21
 21
0.5
 31
0.0
  0
ATTDEF
  5
35
330
2E
100
AcDbEntity
  8
ASHADE
  6
Continuous
 62
     7
100
AcDbText
 10
0.0
 20
0.25
 30
0.0
 40
0.01
  1

100
AcDbAttributeDefinition
280
     0
  3
Look-at Y
  2
LAY
 70
     1
280
     0
  0
ATTDEF
  5
36
330
2E
100
AcDbEntity
  8
ASHADE
  6
Continuous
 62
     7
100
AcDbText
 10
0.0
 20
0.22
 30
0.0
 40
0.01
  1
1
100
AcDbAttributeDefinition
280
     0
  3
Light Intensity
  2
INTENSITY
 70
     1
280
     0
  0
ATTDEF
  5
37
330
2E
100
AcDbEntity
  8
ASHADE
  6
Continuous
 62
     7
100
AcDbText
 10
0.0
 20
0.16
 30
0.0
 40
0.01
  1
-1
100
AcDbAttributeDefinition
280
     0
  3
*not used*
  2
BEAMD
 70
     1
280
     0
  0
ATTDEF
  5
38
330
2E
100
AcDbEntity
  8
ASHADE
  6
Continuous
 62
     7
100
AcDbText
 10
0.0
 20
0.175
 30
0.0
 40
0.01
  1
-1
100
AcDbAttributeDefinition
280
     0
  3
*not used*
  2
CONED
 70
     1
280
     0
  0
ATTDEF
  5
39
330
2E
100
AcDbEntity
  8
ASHADE
  6
Continuous
 62
     7
100
AcDbText
 10
0.0
 20
0.19
 30
0.0
 40
0.01
  1
0
100
AcDbAttributeDefinition
280
     0
  3
Depth Map Size
  2
CONEA
 70
     1
280
     0
  0
ATTDEF
  5
3A
330
2E
100
AcDbEntity
  8
ASHADE
  6
Continuous
 62
     7
100
AcDbText
 10
0.0
 20
0.2050000000000001
 30
0.0
 40
0.01
  1
1,1,1
100
AcDbAttributeDefinition
280
     0
  3
Light Color (RGB)
  2
COLOR
 70
     1
280
     0
  0
ATTDEF
  5
3B
330
2E
100
AcDbEntity
  8
ASHADE
  6
Continuous
 62
     7
100
AcDbText
 10
0.0
 20
0.235
 30
0.0
 40
0.01
  1

100
AcDbAttributeDefinition
280
     0
  3
Look-at Z
  2
LAZ
 70
     1
280
     0
  0
LINE
  5
3C
330
2E
100
AcDbEntity
  8
ASHADE
  6
Continuous
 62
     7
100
AcDbLine
 10
0.0
 20
0.3
 30
0.0
 11
0.0
 21
0.5
 31
0.0
  0
LINE
  5
3D
330
2E
100
AcDbEntity
  8
ASHADE
  6
Continuous
 62
     7
100
AcDbLine
 10
0.11
 20
0.2791057147390572
 30
0.0
 11
0.11
 21
0.5
 31
0.0
  0
ATTDEF
  5
3E
330
2E
100
AcDbEntity
  8
ASHADE
  6
Continuous
 62
     7
100
AcDbText
 10
0.0
 20
0.265
 30
0.0
 40
0.01
  1

100
AcDbAttributeDefinition
280
     0
  3
Look-at X
  2
LAX
 70
     1
280
     0
  0
ATTDEF
  5
3F
330
2E
100
AcDbEntity
  8
ASHADE
  6
Continuous
 62
     7
100
AcDbText
 10
0.0
 20
0.28
 30
0.0
 40
0.01
  1

100
AcDbAttributeDefinition
280
     0
  3

  2
GNAME
 70
     1
280
     0
  0
ENDBLK
  5
41
330
2E
100
AcDbEntity
  8
0
100
AcDbBlockEnd
  0
BLOCK
  5
5D
330
42
100
AcDbEntity
  8
0
100
AcDbBlockBegin
  2
overhead
 70
     2
 10
0.0
 20
0.0
 30
0.0
  3
overhead
  1

  0
ATTDEF
  5
43
330
42
100
AcDbEntity
  8
ASHADE
  6
Continuous
 62
     1
100
AcDbText
 10
0.0
 20
-0.1
 30
0.0
 40
0.2
  1

  7
ASHADE
 72
     1
 11
0.0
 21
-0.1
 31
0.0
100
AcDbAttributeDefinition
280
     0
  3
Light Name
  2
SNAME
 70
     0
280
     0
  0
ARC
  5
44
330
42
100
AcDbEntity
  8
ASHADE
  6
Continuous
 62
     7
100
AcDbCircle
 10
0.0
 20
0.0
 30
0.0
 40
0.3
100
AcDbArc
 50
205.6792886194569
 51
334.3207113805431
  0
LINE
  5
45
330
42
100
AcDbEntity
  8
ASHADE
  6
Continuous
 62
     7
100
AcDbLine
 10
-0.2041413561583015
 20
-0.2198324514393848
 30
0.0
 11
-0.2721884748777353
 21
-0.2931099352525131
 31
0.0
  0
LINE
  5
46
330
42
100
AcDbEntity
  8
ASHADE
  6
Continuous
 62
     7
100
AcDbLine
 10
-0.1096591641591904
 20
-0.2792398032442862
 30
0.0
 11
-0.1279356915190555
 21
-0.3257797704516673
 31
0.0
  0
LINE
  5
47
330
42
100
AcDbEntity
  8
ASHADE
  6
Continuous
 62
     7
100
AcDbLine
 10
0.0
 20
-0.2999999999999999
 30
0.0
 11
0.0
 21
-0.4
 31
0.0
  0
LINE
  5
48
330
42
100
AcDbEntity
  8
ASHADE
  6
Continuous
 62
     7
100
AcDbLine
 10
0.1096591641591904
 20
-0.2792398032442862
 30
0.0
 11
0.1279356915190555
 21
-0.3257797704516673
 31
0.0
  0
LINE
  5
49
330
42
100
AcDbEntity
  8
ASHADE
  6
Continuous
 62
     7
100
AcDbLine
 10
0.2041413561583015
 20
-0.2198324514393848
 30
0.0
 11
0.2721884748777353
 21
-0.2931099352525131
 31
0.0
  0
ARC
  5
4A
330
42
100
AcDbEntity
  8
ASHADE
  6
Continuous
 62
     7
100
AcDbCircle
 10
0.0
 20
0.0
 30
0.0
 40
0.3
100
AcDbArc
 50
25.67928861945685
 51
154.3207113805431
  0
LINE
  5
4B
330
42
100
AcDbEntity
  8
ASHADE
  6
Continuous
 62
     7
100
AcDbLine
 10
-0.2703701166919155
 20
0.13
 30
0.0
 11
-0.3154318028072347
 21
0.1516666666666666
 31
0.0
  0
LINE
  5
4C
330
42
100
AcDbEntity
  8
ASHADE
  6
Continuous
 62
     7
100
AcDbLine
 10
-0.2703701166919155
 20
-0.13
 30
0.0
 11
-0.3154318028072347
 21
-0.1516666666666666
 31
0.0
  0
LINE
  5
4D
330
42
100
AcDbEntity
  8
ASHADE
  6
Continuous
 62
     7
100
AcDbLine
 10
-0.2041413561583015
 20
0.2198324514393849
 30
0.0
 11
-0.2721884748777353
 21
0.2931099352525131
 31
0.0
  0
LINE
  5
4E
330
42
100
AcDbEntity
  8
ASHADE
  6
Continuous
 62
     7
100
AcDbLine
 10
-0.1096591641591904
 20
0.2792398032442862
 30
0.0
 11
-0.1279356915190555
 21
0.3257797704516674
 31
0.0
  0
LINE
  5
4F
330
42
100
AcDbEntity
  8
ASHADE
  6
Continuous
 62
     7
100
AcDbLine
 10
0.2703701166919155
 20
-0.13
 30
0.0
 11
0.3154318028072347
 21
-0.1516666666666666
 31
0.0
  0
LINE
  5
50
330
42
100
AcDbEntity
  8
ASHADE
  6
Continuous
 62
     7
100
AcDbLine
 10
0.2703701166919155
 20
0.13
 30
0.0
 11
0.3154318028072347
 21
0.1516666666666666
 31
0.0
  0
LINE
  5
51
330
42
100
AcDbEntity
  8
ASHADE
  6
Continuous
 62
     7
100
AcDbLine
 10
0.0
 20
0.3
 30
0.0
 11
0.0
 21
0.4
 31
0.0
  0
ATTDEF
  5
52
330
42
100
AcDbEntity
  8
ASHADE
  6
Continuous
 62
     7
100
AcDbText
 10
0.0
 20
0.22
 30
0.0
 40
0.01
  1
1
100
AcDbAttributeDefinition
280
     0
  3
Light Intensity
  2
INTENSITY
 70
     1
280
     0
  0
ATTDEF
  5
53
330
42
100
AcDbEntity
  8
ASHADE
  6
Continuous
 62
     7
100
AcDbText
 10
0.0
 20
0.16
 30
0.0
 40
0.01
  1
-1
100
AcDbAttributeDefinition
280
     0
  3
*not used*
  2
BEAMD
 70
     1
280
     0
  0
ATTDEF
  5
54
330
42
100
AcDbEntity
  8
ASHADE
  6
Continuous
 62
     7
100
AcDbText
 10
0.0
 20
0.175
 30
0.0
 40
0.01
  1
-1
100
AcDbAttributeDefinition
280
     0
  3
*not used*
  2
CONED
 70
     1
280
     0
  0
ATTDEF
  5
55
330
42
100
AcDbEntity
  8
ASHADE
  6
Continuous
 62
     7
100
AcDbText
 10
0.0
 20
0.19
 30
0.0
 40
0.01
  1
0
100
AcDbAttributeDefinition
280
     0
  3
Depth Map Size
  2
CONEA
 70
     1
280
     0
  0
ATTDEF
  5
56
330
42
100
AcDbEntity
  8
ASHADE
  6
Continuous
 62
     7
100
AcDbText
 10
0.0
 20
0.2050000000000001
 30
0.0
 40
0.01
  1
1,1,1
100
AcDbAttributeDefinition
280
     0
  3
Light Color (RGB)
  2
COLOR
 70
     1
280
     0
  0
ATTDEF
  5
57
330
42
100
AcDbEntity
  8
ASHADE
  6
Continuous
 62
     7
100
AcDbText
 10
0.0
 20
0.235
 30
0.0
 40
0.01
  1

100
AcDbAttributeDefinition
280
     0
  3
Look-at Z
  2
LAZ
 70
     1
280
     0
  0
ATTDEF
  5
58
330
42
100
AcDbEntity
  8
ASHADE
  6
Continuous
 62
     7
100
AcDbText
 10
0.0
 20
0.25
 30
0.0
 40
0.01
  1

100
AcDbAttributeDefinition
280
     0
  3
Look-at Y
  2
LAY
 70
     1
280
     0
  0
ATTDEF
  5
59
330
42
100
AcDbEntity
  8
ASHADE
  6
Continuous
 62
     7
100
AcDbText
 10
0.0
 20
0.265
 30
0.0
 40
0.01
  1

100
AcDbAttributeDefinition
280
     0
  3
Look-at X
  2
LAX
 70
     1
280
     0
  0
ATTDEF
  5
5A
330
42
100
AcDbEntity
  8
ASHADE
  6
Continuous
 62
     7
100
AcDbText
 10
0.0
 20
0.28
 30
0.0
 40
0.01
  1

100
AcDbAttributeDefinition
280
     0
  3

  2
GNAME
 70
     1
280
     0
  0
LINE
  5
5B
330
42
100
AcDbEntity
  8
ASHADE
  6
Continuous
 62
     7
100
AcDbLine
 10
0.1096591641591904
 20
0.2792398032442862
 30
0.0
 11
0.1279356915190555
 21
0.3257797704516674
 31
0.0
  0
LINE
  5
5C
330
42
100
AcDbEntity
  8
ASHADE
  6
Continuous
 62
     7
100
AcDbLine
 10
0.2041413561583015
 20
0.2198324514393849
 30
0.0
 11
0.2721884748777353
 21
0.2931099352525131
 31
0.0
  0
ENDBLK
  5
5E
330
42
100
AcDbEntity
  8
0
100
AcDbBlockEnd
  0
BLOCK
  5
85
330
5F
100
AcDbEntity
  8
0
100
AcDbBlockBegin
  2
sh_spot
 70
     2
 10
0.0
 20
0.0
 30
0.0
  3
sh_spot
  1

  0
LINE
  5
60
330
5F
100
AcDbEntity
  8
ASHADE
  6
Continuous
 62
     7
100
AcDbLine
 10
0.25
 20
0.26
 30
0.0
 11
-0.25
 21
0.26
 31
0.0
  0
LINE
  5
61
330
5F
100
AcDbEntity
  8
ASHADE
  6
Continuous
 62
     7
100
AcDbLine
 10
-0.25
 20
-0.3399999999999999
 30
0.0
 11
0.25
 21
-0.3399999999999999
 31
0.0
  0
ATTDEF
  5
62
330
5F
100
AcDbEntity
  8
ASHADE
  6
Continuous
 62
     1
100
AcDbText
 10
0.0
 20
-0.1
 30
0.0
 40
0.2
  1

  7
ASHADE
 72
     1
 11
0.0
 21
-0.1
 31
0.0
100
AcDbAttributeDefinition
280
     0
  3
Light Name
  2
SNAME
 70
     0
280
     0
  0
LINE
  5
63
330
5F
100
AcDbEntity
  8
ASHADE
  6
Continuous
 62
     7
100
AcDbLine
 10
-0.25
 20
-0.13
 30
0.0
 11
-0.25
 21
-0.3399999999999999
 31
0.0
  0
LINE
  5
64
330
5F
100
AcDbEntity
  8
ASHADE
  6
Continuous
 62
     7
100
AcDbLine
 10
-0.25
 20
-0.18
 30
0.0
 11
-0.29
 21
-0.18
 31
0.0
  0
LINE
  5
65
330
5F
100
AcDbEntity
  8
ASHADE
  6
Continuous
 62
     7
100
AcDbLine
 10
-0.29
 20
-0.22
 30
0.0
 11
-0.25
 21
-0.22
 31
0.0
  0
LINE
  5
66
330
5F
100
AcDbEntity
  8
ASHADE
  6
Continuous
 62
     7
100
AcDbLine
 10
-0.29
 20
-0.18
 30
0.0
 11
-0.29
 21
-0.22
 31
0.0
  0
LINE
  5
67
330
5F
100
AcDbEntity
  8
ASHADE
  6
Continuous
 62
     7
100
AcDbLine
 10
-0.1045454545454545
 20
0.26
 30
0.0
 11
-0.15
 21
0.46
 31
0.0
  0
LINE
  5
68
330
5F
100
AcDbEntity
  8
ASHADE
  6
Continuous
 62
     7
100
AcDbLine
 10
-0.21
 20
0.26
 30
0.0
 11
-0.301304347826087
 21
0.46
 31
0.0
  0
LINE
  5
69
330
5F
100
AcDbEntity
  8
ASHADE
  6
Continuous
 62
     7
100
AcDbLine
 10
-0.25
 20
0.26
 30
0.0
 11
-0.25
 21
0.13
 31
0.0
  0
LINE
  5
6A
330
5F
100
AcDbEntity
  8
ASHADE
  6
Continuous
 62
     7
100
AcDbLine
 10
-0.25
 20
0.22
 30
0.0
 11
-0.29
 21
0.22
 31
0.0
  0
LINE
  5
6B
330
5F
100
AcDbEntity
  8
ASHADE
  6
Continuous
 62
     7
100
AcDbLine
 10
-0.29
 20
0.1799999999999999
 30
0.0
 11
-0.25
 21
0.1799999999999999
 31
0.0
  0
LINE
  5
6C
330
5F
100
AcDbEntity
  8
ASHADE
  6
Continuous
 62
     7
100
AcDbLine
 10
-0.29
 20
0.22
 30
0.0
 11
-0.29
 21
0.1799999999999999
 31
0.0
  0
ATTDEF
  5
6D
330
5F
100
AcDbEntity
  8
ASHADE
  6
Continuous
 62
     7
100
AcDbText
 10
0.0
 20
-0.24
 30
0.0
 40
0.01
  1
0
100
AcDbAttributeDefinition
280
     0
  3
Depth Map Size
  2
ZSIZE
 70
     1
280
     0
  0
ATTDEF
  5
6E
330
5F
100
AcDbEntity
  8
ASHADE
  6
Continuous
 62
     7
100
AcDbText
 10
0.0
 20
-0.3300000000000001
 30
0.0
 40
0.01
  1
0,0,0
100
AcDbAttributeDefinition
280
     0
  3
Look-from XYZ
  2
LFXYZ
 70
     1
280
     0
  0
ATTDEF
  5
6F
330
5F
100
AcDbEntity
  8
ASHADE
  6
Continuous
 62
     7
100
AcDbText
 10
0.0
 20
-0.315
 30
0.0
 40
0.01
  1
0.0
100
AcDbAttributeDefinition
280
     0
  3
Beam Distribution
  2
BEAMDI
 70
     1
280
     0
  0
ATTDEF
  5
70
330
5F
100
AcDbEntity
  8
ASHADE
  6
Continuous
 62
     7
100
AcDbText
 10
0.0
 20
-0.3
 30
0.0
 40
0.01
  1
0.0
100
AcDbAttributeDefinition
280
     0
  3
Cone Delta
  2
CONEDE
 70
     1
280
     0
  0
ATTDEF
  5
71
330
5F
100
AcDbEntity
  8
ASHADE
  6
Continuous
 62
     7
100
AcDbText
 10
0.0
 20
-0.2850000000000001
 30
0.0
 40
0.01
  1
10.0
100
AcDbAttributeDefinition
280
     0
  3
Cone Angle
  2
CONEAN
 70
     1
280
     0
  0
ATTDEF
  5
72
330
5F
100
AcDbEntity
  8
ASHADE
  6
Continuous
 62
     7
100
AcDbText
 10
0.0
 20
-0.27
 30
0.0
 40
0.01
  1
-1
100
AcDbAttributeDefinition
280
     0
  3
*not used*
  2
BIASMAX
 70
     1
280
     0
  0
ATTDEF
  5
73
330
5F
100
AcDbEntity
  8
ASHADE
  6
Continuous
 62
     7
100
AcDbText
 10
0.0
 20
-0.255
 30
0.0
 40
0.01
  1
-1
100
AcDbAttributeDefinition
280
     0
  3
*not used*
  2
BIASMIN
 70
     1
280
     0
  0
ATTDEF
  5
74
330
5F
100
AcDbEntity
  8
ASHADE
  6
Continuous
 62
     7
100
AcDbText
 10
0.0
 20
-0.225
 30
0.0
 40
0.01
  1
1,1,1
100
AcDbAttributeDefinition
280
     0
  3
Light Color (RGB)
  2
COLOR
 70
     1
280
     0
  0
ATTDEF
  5
75
330
5F
100
AcDbEntity
  8
ASHADE
  6
Continuous
 62
     7
100
AcDbText
 10
0.0
 20
-0.21
 30
0.0
 40
0.01
  1
1
100
AcDbAttributeDefinition
280
     0
  3
Light Intensity
  2
INTENSITY
 70
     1
280
     0
  0
ATTDEF
  5
76
330
5F
100
AcDbEntity
  8
ASHADE
  6
Continuous
 62
     7
100
AcDbText
 10
0.0
 20
-0.15
 30
0.0
 40
0.01
  1

100
AcDbAttributeDefinition
280
     0
  3

  2
GNAME
 70
     1
280
     0
  0
ATTDEF
  5
77
330
5F
100
AcDbEntity
  8
ASHADE
  6
Continuous
 62
     7
100
AcDbText
 10
0.0
 20
-0.195
 30
0.0
 40
0.01
  1

100
AcDbAttributeDefinition
280
     0
  3
Look-at Z
  2
LAZ
 70
     1
280
     0
  0
ATTDEF
  5
78
330
5F
100
AcDbEntity
  8
ASHADE
  6
Continuous
 62
     7
100
AcDbText
 10
0.0
 20
-0.18
 30
0.0
 40
0.01
  1

100
AcDbAttributeDefinition
280
     0
  3
Look-at Y
  2
LAY
 70
     1
280
     0
  0
ATTDEF
  5
79
330
5F
100
AcDbEntity
  8
ASHADE
  6
Continuous
 62
     7
100
AcDbText
 10
0.0
 20
-0.165
 30
0.0
 40
0.01
  1

100
AcDbAttributeDefinition
280
     0
  3
Look-at X
  2
LAX
 70
     1
280
     0
  0
LINE
  5
7A
330
5F
100
AcDbEntity
  8
ASHADE
  6
Continuous
 62
     7
100
AcDbLine
 10
0.25
 20
-0.3399999999999999
 30
0.0
 11
0.25
 21
-0.13
 31
0.0
  0
LINE
  5
7B
330
5F
100
AcDbEntity
  8
ASHADE
  6
Continuous
 62
     7
100
AcDbLine
 10
0.25
 20
-0.18
 30
0.0
 11
0.29
 21
-0.18
 31
0.0
  0
LINE
  5
7C
330
5F
100
AcDbEntity
  8
ASHADE
  6
Continuous
 62
     7
100
AcDbLine
 10
0.29
 20
-0.22
 30
0.0
 11
0.25
 21
-0.22
 31
0.0
  0
LINE
  5
7D
330
5F
100
AcDbEntity
  8
ASHADE
  6
Continuous
 62
     7
100
AcDbLine
 10
0.29
 20
-0.18
 30
0.0
 11
0.29
 21
-0.22
 31
0.0
  0
LINE
  5
7E
330
5F
100
AcDbEntity
  8
ASHADE
  6
Continuous
 62
     7
100
AcDbLine
 10
0.21
 20
0.26
 30
0.0
 11
0.301304347826087
 21
0.46
 31
0.0
  0
LINE
  5
7F
330
5F
100
AcDbEntity
  8
ASHADE
  6
Continuous
 62
     7
100
AcDbLine
 10
0.1045454545454545
 20
0.26
 30
0.0
 11
0.15
 21
0.46
 31
0.0
  0
LINE
  5
80
330
5F
100
AcDbEntity
  8
ASHADE
  6
Continuous
 62
     7
100
AcDbLine
 10
0.0
 20
0.26
 30
0.0
 11
0.0
 21
0.46
 31
0.0
  0
LINE
  5
81
330
5F
100
AcDbEntity
  8
ASHADE
  6
Continuous
 62
     7
100
AcDbLine
 10
0.25
 20
0.13
 30
0.0
 11
0.25
 21
0.26
 31
0.0
  0
LINE
  5
82
330
5F
100
AcDbEntity
  8
ASHADE
  6
Continuous
 62
     7
100
AcDbLine
 10
0.25
 20
0.22
 30
0.0
 11
0.29
 21
0.22
 31
0.0
  0
LINE
  5
83
330
5F
100
AcDbEntity
  8
ASHADE
  6
Continuous
 62
     7
100
AcDbLine
 10
0.29
 20
0.1799999999999999
 30
0.0
 11
0.25
 21
0.1799999999999999
 31
0.0
  0
LINE
  5
84
330
5F
100
AcDbEntity
  8
ASHADE
  6
Continuous
 62
     7
100
AcDbLine
 10
0.29
 20
0.22
 30
0.0
 11
0.29
 21
0.1799999999999999
 31
0.0
  0
ENDBLK
  5
86
330
5F
100
AcDbEntity
  8
0
100
AcDbBlockEnd
  0
BLOCK
  5
92
330
91
100
AcDbEntity
  8
ASHADE
100
AcDbBlockBegin
  2
AVE_RENDER
 70
     0
 10
0.0
 20
0.0
 30
0.0
  3
AVE_RENDER
  1
AVE_RENDER
  0
ENDBLK
  5
93
330
91
100
AcDbEntity
  8
0
100
AcDbBlockEnd
  0
BLOCK
  5
A0
330
9F
100
AcDbEntity
  8
ASHADE
100
AcDbBlockBegin
  2
AVE_GLOBAL
 70
     0
 10
0.0
 20
0.0
 30
0.0
  3
AVE_GLOBAL
  1
AVE_GLOBAL
  0
ENDBLK
  5
A1
330
9F
100
AcDbEntity
  8
0
100
AcDbBlockEnd
  0
ENDSEC
  0
SECTION
  2
ENTITIES
  0
INSERT
  5
94
330
1F
100
AcDbEntity
  8
ASHADE
 62
     1
100
AcDbBlockReference
  2
AVE_RENDER
 10
0.0
 20
0.0
 30
0.0
1001
AVE_RENDER
1002
{
1070
     7
1000
Pref
1070
    30
1070
    20
1070
     1
1070
     0
1000

1070
    10
1070
     1
1070
    10
1040
1.0
1070
     1
1040
0.3
1040
0.7
1040
0.0
1040
10.0
1010
-1.0
1020
-1.0
1030
-1.0
1040
0.3
1070
    49
1070
     0
1070
     0
1010
1.0
1020
1.0
1030
1.0
1040
45.0
1070
     1
1070
     0
1000
WCS
1040
0.0
1070
     0
1040
10.0
1002
}
  0
INSERT
  5
95
330
1F
100
AcDbEntity
  8
ASHADE
 62
     3
100
AcDbBlockReference
  2
AVE_RENDER
 10
0.0
 20
0.0
 30
0.0
1001
AVE_RENDER
1002
{
1070
     0
1000
Full Opt
1070
     0
1070
     1
1070
     1
1070
     1
1070
     0
1070
     0
1070
     0
1070
     1
1070
     1
1040
0.0001
1040
0.0001
1002
}
  0
INSERT
  5
96
330
1F
100
AcDbEntity
  8
ASHADE
 62
     4
100
AcDbBlockReference
  2
AVE_RENDER
 10
0.0
 20
0.0
 30
0.0
1001
AVE_RENDER
1002
{
1070
     0
1000
Quick Opt
1070
     0
1070
     1
1070
     1
1070
     1
1070
     0
1070
     0
1070
     1
1002
}
  0
INSERT
  5
97
330
1F
100
AcDbEntity
  8
ASHADE
 62
     5
100
AcDbBlockReference
  2
AVE_RENDER
 10
0.0
 20
0.0
 30
0.0
1001
AVE_RENDER
1002
{
1070
     1
1000
Scanl Opt
1070
     2
1070
     0
1070
     2
1040
2.0
1040
4.0
1070
     0
1070
     1
1070
     0
1040
0.03
1002
}
  0
INSERT
  5
98
330
1F
100
AcDbEntity
  8
ASHADE
 62
     6
100
AcDbBlockReference
  2
AVE_RENDER
 10
0.0
 20
0.0
 30
0.0
1001
AVE_RENDER
1002
{
1070
     2
1000
Raytr Opt
1070
     2
1070
     0
1070
     2
1040
2.0
1040
4.0
1070
     0
1070
     1
1070
     1
1040
0.03
1070
     3
1040
0.03
1002
}
  0
INSERT
  5
99
330
1F
100
AcDbEntity
  8
ASHADE
 62
     7
100
AcDbBlockReference
  2
AVE_RENDER
 10
0.0
 20
0.0
 30
0.0
1001
AVE_RENDER
1002
{
1070
     0
1000
RFile Opt
1070
     1
1070
   640
1070
   480
1070
 10000
1070
     1
1070
     8
1070
     8
1070
     0
1070
     0
1070
     0
1070
     0
1070
     0
1070
     0
1070
     0
1002
}
  0
INSERT
  5
9A
330
1F
100
AcDbEntity
  8
ASHADE
 62
     8
100
AcDbBlockReference
  2
AVE_RENDER
 10
0.0
 20
0.0
 30
0.0
1001
AVE_RENDER
1002
{
1070
     0
1000
Fog Opt
1070
     0
1070
     0
1040
0.0
1040
1.0
1040
0.0
1040
1.0
1010
0.5
1020
0.5
1030
0.5
1002
}
  0
INSERT
  5
9B
330
1F
100
AcDbEntity
  8
ASHADE
 62
     9
100
AcDbBlockReference
  2
AVE_RENDER
 10
0.0
 20
0.0
 30
0.0
1001
AVE_RENDER
1002
{
1070
     0
1000
BG Opt
1070
     0
1070
     1
1010
0.0
1020
0.0
1030
0.0
1010
1.0
1020
0.0
1030
0.0
1010
0.0
1020
1.0
1030
0.0
1010
0.0
1020
0.0
1030
1.0
1040
0.5
1040
0.33
1040
0.0
1000

1070
     1
1000

1070
     1
1070
     1
1040
1.0
1040
1.0
1040
0.0
1040
0.0
1070
     0
1002
}
  0
INSERT
  5
A2
330
1F
100
AcDbEntity
  8
ASHADE
 62
     1
100
AcDbBlockReference
  2
AVE_GLOBAL
 10
0.0
 20
0.0
 30
0.0
1001
AVE_MATERIAL
1002
{
1000
*GLOBAL*
1000
2
1000
Global finish.
1002
{
1002
}
1002
{
1070
    63
1002
{
1002
{
1010
-1.0
1020
-1.0
1030
-1.0
1002
}
1040
0.1000000014901161
1000

1040
0.0
1002
{
1002
}
1040
0.0
1002
{
1002
}
1040
0.0
1002
}
1002
{
1002
{
1010
-1.0
1020
-1.0
1030
-1.0
1002
}
1040
0.6999999880790711
1000

1040
0.0
1002
{
1002
}
1040
0.0
1002
{
1002
}
1040
0.0
1002
}
1002
{
1002
{
1010
-1.0
1020
-1.0
1030
-1.0
1002
}
1040
0.2000000029802322
1000

1040
0.0
1002
{
1002
}
1040
0.0
1002
{
1002
}
1040
0.0
1002
}
1002
{
1070
     0
1002
{
1070
     1
1002
{
1040
1.0
1040
1.0
1000

1040
0.0
1002
{
1002
}
1040
0.0
1002
{
1002
}
1040
0.0
1002
}
1002
}
1040
1.0
1040
0.0
1040
0.0
1002
}
1002
{
1040
1.0
1040
1.0
1000

1040
0.0
1002
{
1002
}
1040
0.0
1002
{
1002
}
1040
0.0
1002
}
1002
{
1040
0.5
1040
1.0
1000

1040
0.0
1002
{
1002
}
1040
0.0
1002
{
1002
}
1040
0.0
1002
}
1002
{
1070
     0
1040
0.0
1002
{
1002
}
1040
1.0
1002
{
1002
}
1040
0.0
1002
}
1002
{
1040
0.0
1002
{
1002
{
1010
0.0
1020
0.0
1030
0.0
1002
}
1040
1.0
1000

1040
0.0
1002
{
1002
}
1040
0.0
1002
{
1002
}
1040
0.0
1002
}
1002
}
1002
{
1002
{
1070
     1
1002
{
1040
0.0
1040
1.0
1000

1040
0.0
1002
{
1002
}
1040
0.0
1002
{
1002
}
1040
0.0
1002
}
1002
}
1040
0.0
1002
{
1002
}
1010
1.0
1020
0.0
1030
0.0
1010
0.0
1020
1.0
1030
0.0
1010
0.0
1020
0.0
1030
1.0
1070
     0
1002
}
1002
{
1002
{
1040
1.0
1040
1.0
1002
{
1070
     1
1002
{
1040
1.0
1040
1.0
1000

1040
0.0
1002
{
1002
}
1040
0.0
1002
{
1002
}
1040
0.0
1002
}
1002
}
1002
}
1070
     0
1040
0.0
1002
{
1002
}
1002
}
1002
{
1002
}
1002
}
1002
{
1071
        3
1070
     3
1070
     0
1002
{
1070
     2
1070
     0
1070
     0
1040
0.0
1002
}
1070
     0
1070
     2
1002
{
1002
}
1002
}
1002
{
1040
8030.0
1040
190.3000030517578
1040
0.3050000071525574
1040
228.0
1040
545.0
1040
14.0
1040
17.39999961853027
1040
0.4560000002384186
1002
}
1002
}
  0
MESH
  5
F9
330
1F
100
AcDbEntity
  8
0
 62
    76
420
  4032262
160
             25064
310
E8610000B80200000C00000013000000020000003C000000060000000200000000000080D59EAB40000000C0E5A85740000000808B0F04C000000080D59EAB40000000C0D0A15C40000000808B0F04C00C000000130000000A0000003C000000060000000200000000000080B384AC40000000C0D0A15C40000000808B0F04
310
C000000080D59EAB40000000C0D0A15C40000000808B0F04C00C00000013000000120000003C000000060000000200000000000080B384AC40000000C0E5A85740000000808B0F04C000000080B384AC40000000C0D0A15C40000000808B0F04C00C000000130000001A0000003C000000060000000200000000000080B384
310
AC40000000C0E5A85740000000808B0F04C000000080D59EAB40000000C0E5A85740000000808B0F04C00C00000013000000220000003C000000060000000200000000000080D59EAB40000000C0E5A8574000000000004F7ABF00000080B384AC40000000C0E5A8574000000000004F7ABF0C000000130000002A0000003C
310
000000060000000200000000000080B384AC40000000C0E5A8574000000000004F7ABF00000080B384AC40000000C0D0A15C4000000000004F7ABF0C00000013000000320000003C000000060000000200000000000080D59EAB40000000C0D0A15C4000000000004F7ABF00000080B384AC40000000C0D0A15C4000000000
310
004F7ABF0C000000130000003A0000003C000000060000000200000000000080D59EAB40000000C0E5A8574000000000004F7ABF00000080D59EAB40000000C0D0A15C4000000000004F7ABF0C00000013000000420000003C000000060000000200000000000080D59EAB40000000C00EA5574000000040AA9403C0000000
310
80B384AC40000000C00EA5574000000040AA9403C00C000000130000004A0000003C000000060000000200000000000080B384AC40000000C00EA5574000000040AA9403C000000080B384AC40000000C00EA55740000000001801B1BF0C00000013000000520000003C000000060000000200000000000080D59EAB400000
310
00C00EA55740000000001801B1BF00000080B384AC40000000C00EA55740000000001801B1BF0C000000130000005A0000003C000000060000000200000000000080D59EAB40000000C00EA5574000000040AA9403C000000080D59EAB40000000C00EA55740000000001801B1BF0C00000013000000620000003C00000006
310
0000000200000000000040D284AC40000000C0E5A8574000000040AA9403C000000040D284AC40000000C0D0A15C4000000040AA9403C00C000000130000006A0000003C000000060000000200000000000040D284AC40000000C0D0A15C4000000040AA9403C000000040D284AC40000000C0D0A15C40000000001801B1BF
310
0C00000013000000720000003C000000060000000200000000000040D284AC40000000C0E5A85740000000001801B1BF00000040D284AC40000000C0D0A15C40000000001801B1BF0C000000130000007A0000003C000000060000000200000000000040D284AC40000000C0E5A85740000000001801B1BF00000040D284AC
310
40000000C0E5A8574000000040AA9403C00C00000013000000820000003C000000060000000200000000000080D59EAB40000000C0A7A55C4000000040AA9403C000000080B384AC40000000C0A7A55C4000000040AA9403C00C000000130000008A0000003C000000060000000200000000000080D59EAB40000000C0A7A5
310
5C4000000040AA9403C000000080D59EAB40000000C0A7A55C40000000001801B1BF0C00000013000000920000003C000000060000000200000000000080B384AC40000000C0A7A55C40000000001801B1BF00000080D59EAB40000000C0A7A55C40000000001801B1BF0C000000130000009A0000003C0000000600000002
310
00000000000080B384AC40000000C0A7A55C40000000001801B1BF00000080B384AC40000000C0A7A55C4000000040AA9403C00C00000013000000A20000003C0000000600000002000000000000C0B69EAB40000000C0D0A15C4000000040AA9403C0000000C0B69EAB40000000C0E5A8574000000040AA9403C00C000000
310
13000000AA0000003C0000000600000002000000000000C0B69EAB40000000C0E5A8574000000040AA9403C0000000C0B69EAB40000000C0E5A85740000000001801B1BF0C00000013000000B20000003C0000000600000002000000000000C0B69EAB40000000C0D0A15C40000000001801B1BF000000C0B69EAB40000000
310
C0E5A85740000000001801B1BF0C00000013000000BA0000003C0000000600000002000000000000C0B69EAB40000000C0D0A15C4000000040AA9403C0000000C0B69EAB40000000C0D0A15C40000000001801B1BF0C00000013000000C20000003C0000000600000002000000000000C0E0FCAB40000000E0E5A857400000
310
0000004F7ABF000000C0E0FCAB40000000A0D0A15C4000000000004F7ABF0C00000013000000CA0000003C000000060000000200000000000000A401AC40000000A0D0A15C4000000000004F7ABF000000C0E0FCAB40000000A0D0A15C4000000000004F7ABF0C00000013000000D20000003C000000060000000200000000
310
000000A401AC40000000E0E5A8574000000000004F7ABF00000000A401AC40000000A0D0A15C4000000000004F7ABF0C00000013000000DA0000003C000000060000000200000000000000A401AC40000000E0E5A8574000000000004F7ABF000000C0E0FCAB40000000E0E5A8574000000000004F7ABF0C00000013000000
310
E20000003C0000000600000002000000000000C0E0FCAB40000000E0E5A85740000000005801394000000000A401AC40000000E0E5A8574000000000580139400C00000013000000EA0000003C000000060000000200000000000000A401AC40000000E0E5A85740000000005801394000000000A401AC40000000A0D0A15C
310
4000000000580139400C00000013000000F20000003C0000000600000002000000000000C0E0FCAB40000000A0D0A15C40000000005801394000000000A401AC40000000A0D0A15C4000000000580139400C00000013000000FA0000003C0000000600000002000000000000C0E0FCAB40000000E0E5A85740000000005801
310
3940000000C0E0FCAB40000000A0D0A15C4000000000580139400C00000013000000020100003C0000000600000002000000000000C0E0FCAB40000000C00EA5574000000000706EAB3F00000000A401AC40000000C00EA5574000000000706EAB3F0C000000130000000A0100003C000000060000000200000000000000A4
310
01AC40000000C00EA5574000000000706EAB3F00000000A401AC40000000C00EA5574000000000FCF138400C00000013000000120100003C0000000600000002000000000000C0E0FCAB40000000C00EA5574000000000FCF1384000000000A401AC40000000C00EA5574000000000FCF138400C000000130000001A010000
310
3C0000000600000002000000000000C0E0FCAB40000000C00EA5574000000000706EAB3F000000C0E0FCAB40000000C00EA5574000000000FCF138400C00000013000000220100003C0000000600000002000000000000C0C201AC40000000E0E5A8574000000000706EAB3F000000C0C201AC40000000A0D0A15C40000000
310
00706EAB3F0C000000130000002A0100003C0000000600000002000000000000C0C201AC40000000A0D0A15C4000000000706EAB3F000000C0C201AC40000000A0D0A15C4000000000FCF138400C00000013000000320100003C0000000600000002000000000000C0C201AC40000000E0E5A8574000000000FCF138400000
310
00C0C201AC40000000A0D0A15C4000000000FCF138400C000000130000003A0100003C0000000600000002000000000000C0C201AC40000000E0E5A8574000000000FCF13840000000C0C201AC40000000E0E5A8574000000000706EAB3F0C00000013000000420100003C0000000600000002000000000000C0E0FCAB4000
310
0000C0A7A55C4000000000706EAB3F00000000A401AC40000000C0A7A55C4000000000706EAB3F0C000000130000004A0100003C0000000600000002000000000000C0E0FCAB40000000C0A7A55C4000000000706EAB3F000000C0E0FCAB40000000C0A7A55C4000000000FCF138400C00000013000000520100003C000000
310
060000000200000000000000A401AC40000000C0A7A55C4000000000FCF13840000000C0E0FCAB40000000C0A7A55C4000000000FCF138400C000000130000005A0100003C000000060000000200000000000000A401AC40000000C0A7A55C4000000000FCF1384000000000A401AC40000000C0A7A55C4000000000706EAB
310
3F0C00000013000000620100003C000000060000000200000000000000C2FCAB40000000A0D0A15C4000000000706EAB3F00000000C2FCAB40000000E0E5A8574000000000706EAB3F0C000000130000006A0100003C000000060000000200000000000000C2FCAB40000000E0E5A8574000000000706EAB3F00000000C2FC
310
AB40000000E0E5A8574000000000FCF138400C00000013000000720100003C000000060000000200000000000000C2FCAB40000000A0D0A15C4000000000FCF1384000000000C2FCAB40000000E0E5A8574000000000FCF138400C000000130000007A0100003C000000060000000200000000000000C2FCAB40000000A0D0
310
A15C4000000000706EAB3F00000000C2FCAB40000000A0D0A15C4000000000FCF138400C00000013000000820100003C000000060000000200000000000080DCD9AB40000000E0E5A8574000000000004F7ABF00000080DCD9AB40000000A0D0A15C4000000000004F7ABF0C000000130000008A0100003C00000006000000
310
02000000000000C09FDEAB40000000A0D0A15C4000000000004F7ABF00000080DCD9AB40000000A0D0A15C4000000000004F7ABF0C00000013000000920100003C0000000600000002000000000000C09FDEAB40000000E0E5A8574000000000004F7ABF000000C09FDEAB40000000A0D0A15C4000000000004F7ABF0C0000
310
00130000009A0100003C0000000600000002000000000000C09FDEAB40000000E0E5A8574000000000004F7ABF00000080DCD9AB40000000E0E5A8574000000000004F7ABF0C00000013000000A20100003C000000060000000200000000000080DCD9AB40000000E0E5A857400000000058013940000000C09FDEAB400000
310
00E0E5A8574000000000580139400C00000013000000AA0100003C0000000600000002000000000000C09FDEAB40000000E0E5A857400000000058013940000000C09FDEAB40000000A0D0A15C4000000000580139400C00000013000000B20100003C000000060000000200000000000080DCD9AB40000000A0D0A15C4000
310
00000058013940000000C09FDEAB40000000A0D0A15C4000000000580139400C00000013000000BA0100003C000000060000000200000000000080DCD9AB40000000E0E5A85740000000005801394000000080DCD9AB40000000A0D0A15C4000000000580139400C00000013000000C20100003C0000000600000002000000
310
00000080DCD9AB40000000C00EA5574000000000706EAB3F000000C09FDEAB40000000C00EA5574000000000706EAB3F0C00000013000000CA0100003C0000000600000002000000000000C09FDEAB40000000C00EA5574000000000706EAB3F000000C09FDEAB40000000C00EA5574000000000FCF138400C000000130000
310
00D20100003C000000060000000200000000000080DCD9AB40000000C00EA5574000000000FCF13840000000C09FDEAB40000000C00EA5574000000000FCF138400C00000013000000DA0100003C000000060000000200000000000080DCD9AB40000000C00EA5574000000000706EAB3F00000080DCD9AB40000000C00EA5
310
574000000000FCF138400C00000013000000E20100003C000000060000000200000000000080BEDEAB40000000E0E5A8574000000000706EAB3F00000080BEDEAB40000000A0D0A15C4000000000706EAB3F0C00000013000000EA0100003C000000060000000200000000000080BEDEAB40000000A0D0A15C400000000070
310
6EAB3F00000080BEDEAB40000000A0D0A15C4000000000FCF138400C00000013000000F20100003C000000060000000200000000000080BEDEAB40000000E0E5A8574000000000FCF1384000000080BEDEAB40000000A0D0A15C4000000000FCF138400C00000013000000FA0100003C000000060000000200000000000080
310
BEDEAB40000000E0E5A8574000000000FCF1384000000080BEDEAB40000000E0E5A8574000000000706EAB3F0C00000013000000020200003C000000060000000200000000000080DCD9AB40000000C0A7A55C4000000000706EAB3F000000C09FDEAB40000000C0A7A55C4000000000706EAB3F0C000000130000000A0200
310
003C000000060000000200000000000080DCD9AB40000000C0A7A55C4000000000706EAB3F00000080DCD9AB40000000C0A7A55C4000000000FCF138400C00000013000000120200003C0000000600000002000000000000C09FDEAB40000000C0A7A55C4000000000FCF1384000000080DCD9AB40000000C0A7A55C400000
310
0000FCF138400C000000130000001A0200003C0000000600000002000000000000C09FDEAB40000000C0A7A55C4000000000FCF13840000000C09FDEAB40000000C0A7A55C4000000000706EAB3F0C00000013000000220200003C0000000600000002000000000000C0BDD9AB40000000A0D0A15C4000000000706EAB3F00
310
0000C0BDD9AB40000000E0E5A8574000000000706EAB3F0C000000130000002A0200003C0000000600000002000000000000C0BDD9AB40000000E0E5A8574000000000706EAB3F000000C0BDD9AB40000000E0E5A8574000000000FCF138400C00000013000000320200003C0000000600000002000000000000C0BDD9AB40
310
000000A0D0A15C4000000000FCF13840000000C0BDD9AB40000000E0E5A8574000000000FCF138400C000000130000003A0200003C0000000600000002000000000000C0BDD9AB40000000A0D0A15C4000000000706EAB3F000000C0BDD9AB40000000A0D0A15C4000000000FCF138400C00000013000000420200003C0000
310
00060000000200000000000080D59EAB40000000C00EA5574000000040AA9403C000000040C49EAB400000008004A6574000000000C9D903C00C000000130000004A0200003C000000060000000200000000000080D59EAB400000008004A6574000000020D3F003C000000040C49EAB400000008004A6574000000000C9D9
310
03C00C00000013000000520200003C000000060000000200000000000080D59EAB40000000C00EA5574000000040AA9403C000000080D59EAB400000008004A6574000000020D3F003C00C000000130000005A0200003C000000060000000200000000000080B384AC40000000C0E5A85740000000808B0F04C0000000C0C4
310
84AC40000000E0BCA6574000000020D3F003C00C00000013000000620200003C000000060000000200000000000080B384AC400000008004A6574000000020D3F003C0000000C0C484AC40000000E0BCA6574000000020D3F003C00C000000130000006A0200003C000000060000000200000000000080B384AC40000000C0
310
E5A85740000000808B0F04C000000080B384AC400000008004A6574000000020D3F003C00C00000013000000720200003C0000000600000002000000000000C0B69EAB40000000C0D0A15C4000000040AA9403C000000060BE9EAB40000000A0F9A35C4000000000C9D903C00C000000130000007A0200003C000000060000
310
000200000000000060BE9EAB40000000C0D0A15C4000000020D3F003C000000060BE9EAB40000000A0F9A35C4000000000C9D903C00C00000013000000820200003C0000000600000002000000000000C0B69EAB40000000C0D0A15C4000000040AA9403C000000060BE9EAB40000000C0D0A15C4000000020D3F003C00C00
310
0000130000008A0200003C000000060000000200000000000080B384AC40000000C0D0A15C40000000808B0F04C0000000C0C484AC4000000020F9A35C4000000020D3F003C00C00000013000000920200003C0000000600000002000000000000A0CA84AC40000000C0D0A15C4000000020D3F003C0000000C0C484AC4000
310
000020F9A35C4000000020D3F003C00C000000130000009A0200003C000000060000000200000000000080B384AC40000000C0D0A15C40000000808B0F04C0000000A0CA84AC40000000C0D0A15C4000000020D3F003C00C00000013000000A20200003C000000060000000200000000000080D59EAB40000000C00EA55740
310
000000001801B1BF00000040C49EAB400000008004A657400000000040CCA0BF0C00000013000000AA0200003C000000060000000200000000000060BE9EAB400000008004A65740000000001801B1BF00000040C49EAB400000008004A657400000000040CCA0BF0C00000013000000B20200003C00000006000000020000
310
0000000080D59EAB40000000C00EA55740000000001801B1BF00000060BE9EAB400000008004A65740000000001801B1BF0C00000013000000BA0200003C000000060000000200000000000040D284AC40000000C0E5A85740000000001801B1BF000000A0CA84AC40000000E0BCA657400000000070BAA0BF0C0000001300
310
0000C20200003C0000000600000002000000000000A0CA84AC400000008004A65740000000001801B1BF000000A0CA84AC40000000E0BCA657400000000070BAA0BF0C00000013000000CA0200003C000000060000000200000000000040D284AC40000000C0E5A85740000000001801B1BF000000A0CA84AC400000008004
310
A65740000000001801B1BF0C00000013000000D20200003C0000000600000002000000000000C0B69EAB40000000C0D0A15C40000000001801B1BF00000060BE9EAB40000000A0F9A35C400000000070BAA0BF0C00000013000000DA0200003C000000060000000200000000000060BE9EAB4000000000B2A45C4000000000
310
1801B1BF00000060BE9EAB40000000A0F9A35C400000000070BAA0BF0C00000013000000E20200003C0000000600000002000000000000C0B69EAB40000000C0D0A15C40000000001801B1BF00000060BE9EAB4000000000B2A45C40000000001801B1BF0C00000013000000EA0200003C0000000600000002000000000000
310
80B384AC40000000C0A7A55C40000000001801B1BF000000C0C484AC4000000000B2A45C400000000040CCA0BF0C00000013000000F20200003C0000000600000002000000000000A0CA84AC4000000000B2A45C40000000001801B1BF000000C0C484AC4000000000B2A45C400000000040CCA0BF0C00000013000000FA02
310
00003C000000060000000200000000000080B384AC40000000C0A7A55C40000000001801B1BF000000A0CA84AC4000000000B2A45C40000000001801B1BF0C00000013000000020300003C0000000600000002000000000000C0E0FCAB40000000C00EA5574000000000706EAB3F00000080CFFCAB40000000A004A6574000
310
000000904D943F0C000000130000000A0300003C0000000600000002000000000000C0E0FCAB40000000A004A6574000000000E090813F00000080CFFCAB40000000A004A6574000000000904D943F0C00000013000000120300003C0000000600000002000000000000C0E0FCAB40000000C00EA5574000000000706EAB3F
310
000000C0E0FCAB40000000A004A6574000000000E090813F0C000000130000001A0300003C000000060000000200000000000000A401AC40000000E0E5A8574000000000004F7ABF00000040B501AC40000000E0BCA6574000000000E090813F0C00000013000000220300003C000000060000000200000000000000A401AC
310
40000000A004A6574000000000E090813F00000040B501AC40000000E0BCA6574000000000E090813F0C000000130000002A0300003C000000060000000200000000000000A401AC40000000E0E5A8574000000000004F7ABF00000000A401AC40000000A004A6574000000000E090813F0C00000013000000320300003C00
310
0000060000000200000000000000C2FCAB40000000A0D0A15C4000000000706EAB3F000000C0C9FCAB40000000A0F9A35C4000000000904D943F0C000000130000003A0300003C0000000600000002000000000000C0C9FCAB40000000A0D0A15C4000000000E090813F000000C0C9FCAB40000000A0F9A35C400000000090
310
4D943F0C00000013000000420300003C000000060000000200000000000000C2FCAB40000000A0D0A15C4000000000706EAB3F000000C0C9FCAB40000000A0D0A15C4000000000E090813F0C000000130000004A0300003C000000060000000200000000000000A401AC40000000A0D0A15C4000000000004F7ABF00000040
310
B501AC40000000A0F9A35C4000000000E090813F0C00000013000000520300003C000000060000000200000000000000BB01AC40000000A0D0A15C4000000000E090813F00000040B501AC40000000A0F9A35C4000000000E090813F0C000000130000005A0300003C000000060000000200000000000000A401AC40000000
310
A0D0A15C4000000000004F7ABF00000000BB01AC40000000A0D0A15C4000000000E090813F0C00000013000000620300003C0000000600000002000000000000C0E0FCAB40000000C00EA5574000000000FCF1384000000080CFFCAB40000000A004A65740000000C09FFA38400C000000130000006A0300003C0000000600
310
000002000000000000C0C9FCAB40000000A004A6574000000000FCF1384000000080CFFCAB40000000A004A65740000000C09FFA38400C00000013000000720300003C0000000600000002000000000000C0E0FCAB40000000C00EA5574000000000FCF13840000000C0C9FCAB40000000A004A6574000000000FCF138400C
310
000000130000007A0300003C0000000600000002000000000000C0C201AC40000000E0E5A8574000000000FCF1384000000000BB01AC40000000E0BCA65740000000C09FFA38400C00000013000000820300003C000000060000000200000000000000BB01AC40000000A004A6574000000000FCF1384000000000BB01AC40
310
000000E0BCA65740000000C09FFA38400C000000130000008A0300003C0000000600000002000000000000C0C201AC40000000E0E5A8574000000000FCF1384000000000BB01AC40000000A004A6574000000000FCF138400C00000013000000920300003C000000060000000200000000000000C2FCAB40000000A0D0A15C
310
4000000000FCF13840000000C0C9FCAB40000000A0F9A35C40000000C09FFA38400C000000130000009A0300003C0000000600000002000000000000C0C9FCAB40000000E0B1A45C4000000000FCF13840000000C0C9FCAB40000000A0F9A35C40000000C09FFA38400C00000013000000A20300003C000000060000000200
310
000000000000C2FCAB40000000A0D0A15C4000000000FCF13840000000C0C9FCAB40000000E0B1A45C4000000000FCF138400C00000013000000AA0300003C000000060000000200000000000000A401AC40000000C0A7A55C4000000000FCF1384000000040B501AC40000000E0B1A45C40000000C09FFA38400C00000013
310
000000B20300003C000000060000000200000000000000BB01AC40000000E0B1A45C4000000000FCF1384000000040B501AC40000000E0B1A45C40000000C09FFA38400C00000013000000BA0300003C000000060000000200000000000000A401AC40000000C0A7A55C4000000000FCF1384000000000BB01AC40000000E0
310
B1A45C4000000000FCF138400C00000013000000C20300003C000000060000000200000000000080DCD9AB40000000C00EA5574000000000706EAB3F00000040CBD9AB40000000A004A6574000000000904D943F0C00000013000000CA0300003C000000060000000200000000000080DCD9AB40000000A004A65740000000
310
00E090813F00000040CBD9AB40000000A004A6574000000000904D943F0C00000013000000D20300003C000000060000000200000000000080DCD9AB40000000C00EA5574000000000706EAB3F00000080DCD9AB40000000A004A6574000000000E090813F0C00000013000000DA0300003C00000006000000020000000000
310
00C09FDEAB40000000E0E5A8574000000000004F7ABF00000000B1DEAB40000000E0BCA6574000000000E090813F0C00000013000000E20300003C0000000600000002000000000000C09FDEAB40000000A004A6574000000000E090813F00000000B1DEAB40000000E0BCA6574000000000E090813F0C00000013000000EA
310
0300003C0000000600000002000000000000C09FDEAB40000000E0E5A8574000000000004F7ABF000000C09FDEAB40000000A004A6574000000000E090813F0C00000013000000F20300003C0000000600000002000000000000C0BDD9AB40000000A0D0A15C4000000000706EAB3F00000080C5D9AB40000000A0F9A35C40
310
00000000904D943F0C00000013000000FA0300003C000000060000000200000000000080C5D9AB40000000A0D0A15C4000000000E090813F00000080C5D9AB40000000A0F9A35C4000000000904D943F0C00000013000000020400003C0000000600000002000000000000C0BDD9AB40000000A0D0A15C4000000000706EAB
310
3F00000080C5D9AB40000000A0D0A15C4000000000E090813F0C000000130000000A0400003C0000000600000002000000000000C09FDEAB40000000A0D0A15C4000000000004F7ABF00000000B1DEAB40000000A0F9A35C4000000000E090813F0C00000013000000120400003C0000000600000002000000000000C0B6DE
310
AB40000000A0D0A15C4000000000E090813F00000000B1DEAB40000000A0F9A35C4000000000E090813F0C000000130000001A0400003C0000000600000002000000000000C09FDEAB40000000A0D0A15C4000000000004F7ABF000000C0B6DEAB40000000A0D0A15C4000000000E090813F0C00000013000000220400003C
310
000000060000000200000000000080DCD9AB40000000C00EA5574000000000FCF1384000000040CBD9AB40000000A004A65740000000C09FFA38400C000000130000002A0400003C000000060000000200000000000080C5D9AB40000000A004A6574000000000FCF1384000000040CBD9AB40000000A004A65740000000C0
310
9FFA38400C00000013000000320400003C000000060000000200000000000080DCD9AB40000000C00EA5574000000000FCF1384000000080C5D9AB40000000A004A6574000000000FCF138400C000000130000003A0400003C000000060000000200000000000080BEDEAB40000000E0E5A8574000000000FCF13840000000
310
C0B6DEAB40000000E0BCA65740000000C09FFA38400C00000013000000420400003C0000000600000002000000000000C0B6DEAB40000000A004A6574000000000FCF13840000000C0B6DEAB40000000E0BCA65740000000C09FFA38400C000000130000004A0400003C000000060000000200000000000080BEDEAB400000
310
00E0E5A8574000000000FCF13840000000C0B6DEAB40000000A004A6574000000000FCF138400C00000013000000520400003C0000000600000002000000000000C0BDD9AB40000000A0D0A15C4000000000FCF1384000000080C5D9AB40000000A0F9A35C40000000C09FFA38400C000000130000005A0400003C00000006
310
0000000200000000000080C5D9AB40000000E0B1A45C4000000000FCF1384000000080C5D9AB40000000A0F9A35C40000000C09FFA38400C00000013000000620400003C0000000600000002000000000000C0BDD9AB40000000A0D0A15C4000000000FCF1384000000080C5D9AB40000000E0B1A45C4000000000FCF13840
310
0C000000130000006A0400003C0000000600000002000000000000C09FDEAB40000000C0A7A55C4000000000FCF1384000000000B1DEAB40000000E0B1A45C40000000C09FFA38400C00000013000000720400003C0000000600000002000000000000C0B6DEAB40000000E0B1A45C4000000000FCF1384000000000B1DEAB
310
40000000E0B1A45C40000000C09FFA38400C000000130000007A0400003C0000000600000002000000000000C09FDEAB40000000C0A7A55C4000000000FCF13840000000C0B6DEAB40000000E0B1A45C4000000000FCF138400C00000013000000820400003C000000060000000200000000000080D59EAB40000000C0E5A8
310
5740000000808B0F04C000000060BE9EAB40000000C0E5A8574000000020D3F003C00C000000130000008A0400003C000000060000000200000000000060BE9EAB40000000C0E5A8574000000020D3F003C000000060BE9EAB40000000C0D0A15C4000000020D3F003C00C00000013000000920400003C0000000600000002
310
00000000000080D59EAB40000000C0D0A15C40000000808B0F04C000000060BE9EAB40000000C0D0A15C4000000020D3F003C00C000000130000009A0400003C000000060000000200000000000080D59EAB40000000C0D0A15C40000000808B0F04C000000080D59EAB4000000000B2A45C4000000020D3F003C00C000000
310
13000000A20400003C000000060000000200000000000080D59EAB4000000000B2A45C4000000020D3F003C000000080B384AC4000000000B2A45C4000000020D3F003C00C00000013000000AA0400003C000000060000000200000000000080B384AC40000000C0D0A15C40000000808B0F04C000000080B384AC40000000
310
00B2A45C4000000020D3F003C00C00000013000000B20400003C0000000600000002000000000000A0CA84AC40000000C0E5A8574000000020D3F003C0000000A0CA84AC40000000C0D0A15C4000000020D3F003C00C00000013000000BA0400003C000000060000000200000000000080B384AC40000000C0E5A857400000
310
00808B0F04C0000000A0CA84AC40000000C0E5A8574000000020D3F003C00C00000013000000C20400003C000000060000000200000000000080D59EAB400000008004A6574000000020D3F003C000000080B384AC400000008004A6574000000020D3F003C00C00000013000000CA0400003C000000060000000200000000
310
000080D59EAB40000000C0E5A85740000000808B0F04C000000080D59EAB400000008004A6574000000020D3F003C00C00000013000000D20400003C000000060000000200000000000080D59EAB40000000C0E5A8574000000000004F7ABF00000080D59EAB400000008004A6574000000000F0EF95BF0C00000013000000
310
DA0400003C000000060000000200000000000080D59EAB400000008004A6574000000000F0EF95BF00000080B384AC400000008004A6574000000000B0EF95BF0C00000013000000E20400003C000000060000000200000000000080B384AC40000000C0E5A8574000000000004F7ABF00000080B384AC400000008004A657
310
4000000000B0EF95BF0C00000013000000EA0400003C000000060000000200000000000080B384AC40000000C0E5A8574000000000004F7ABF000000A0CA84AC40000000C0E5A8574000000000F0EF95BF0C00000013000000F20400003C0000000600000002000000000000A0CA84AC40000000C0E5A8574000000000F0EF
310
95BF000000A0CA84AC40000000C0D0A15C4000000000201F96BF0C00000013000000FA0400003C000000060000000200000000000080B384AC40000000C0D0A15C4000000000004F7ABF000000A0CA84AC40000000C0D0A15C4000000000201F96BF0C00000013000000020500003C000000060000000200000000000080B3
310
84AC40000000C0D0A15C4000000000004F7ABF00000080B384AC4000000000B2A45C4000000000F0EF95BF0C000000130000000A0500003C000000060000000200000000000080D59EAB4000000000B2A45C4000000000B0EF95BF00000080B384AC4000000000B2A45C4000000000F0EF95BF0C0000001300000012050000
310
3C000000060000000200000000000080D59EAB40000000C0D0A15C4000000000004F7ABF00000080D59EAB4000000000B2A45C4000000000B0EF95BF0C000000130000001A0500003C000000060000000200000000000080D59EAB40000000C0D0A15C4000000000004F7ABF00000060BE9EAB40000000C0D0A15C40000000
310
00F0EF95BF0C00000013000000220500003C000000060000000200000000000060BE9EAB40000000C0E5A8574000000000201F96BF00000060BE9EAB40000000C0D0A15C4000000000F0EF95BF0C000000130000002A0500003C000000060000000200000000000080D59EAB40000000C0E5A8574000000000004F7ABF0000
310
0060BE9EAB40000000C0E5A8574000000000201F96BF0C00000013000000320500003C000000060000000200000000000080B384AC40000000C00EA5574000000040AA9403C0000000A0CA84AC400000008004A6574000000040AA9403C00C000000130000003A0500003C0000000600000002000000000000A0CA84AC4000
310
00008004A6574000000040AA9403C0000000A0CA84AC400000008004A65740000000001801B1BF0C00000013000000420500003C000000060000000200000000000080B384AC40000000C00EA55740000000001801B1BF000000A0CA84AC400000008004A65740000000001801B1BF0C000000130000004A0500003C000000
310
060000000200000000000060BE9EAB400000008004A6574000000040AA9403C000000060BE9EAB400000008004A65740000000001801B1BF0C00000013000000520500003C000000060000000200000000000080D59EAB40000000C00EA5574000000040AA9403C000000060BE9EAB400000008004A6574000000040AA9403
310
C00C000000130000005A0500003C000000060000000200000000000040D284AC40000000C0D0A15C4000000040AA9403C0000000A0CA84AC4000000040B1A45C4000000040AA9403C00C00000013000000620500003C0000000600000002000000000000A0CA84AC4000000040B1A45C4000000040AA9403C0000000A0CA84
310
AC4000000000B2A45C40000000001801B1BF0C000000130000006A0500003C000000060000000200000000000040D284AC40000000C0D0A15C40000000001801B1BF000000A0CA84AC4000000000B2A45C40000000001801B1BF0C00000013000000720500003C000000060000000200000000000080D59EAB40000000C0A7
310
A55C4000000040AA9403C000000060BE9EAB4000000000B2A45C4000000040AA9403C00C000000130000007A0500003C000000060000000200000000000060BE9EAB4000000000B2A45C4000000040AA9403C000000060BE9EAB4000000000B2A45C40000000001801B1BF0C00000013000000820500003C00000006000000
310
0200000000000080D59EAB40000000C0A7A55C40000000001801B1BF00000060BE9EAB4000000000B2A45C40000000001801B1BF0C000000130000008A0500003C0000000600000002000000000000C0E0FCAB40000000E0E5A8574000000000004F7ABF000000C0C9FCAB40000000E0E5A8574000000000E090813F0C0000
310
0013000000920500003C0000000600000002000000000000C0C9FCAB40000000E0E5A8574000000000E090813F000000C0C9FCAB40000000A0D0A15C4000000000E090813F0C000000130000009A0500003C0000000600000002000000000000C0E0FCAB40000000A0D0A15C4000000000004F7ABF000000C0C9FCAB400000
310
00A0D0A15C4000000000E090813F0C00000013000000A20500003C0000000600000002000000000000C0E0FCAB40000000A0D0A15C4000000000004F7ABF000000C0E0FCAB40000000E0B1A45C4000000000E090813F0C00000013000000AA0500003C0000000600000002000000000000C0E0FCAB40000000E0B1A45C4000
310
000000E090813F00000000A401AC40000000E0B1A45C4000000000E090813F0C00000013000000B20500003C000000060000000200000000000000A401AC40000000A0D0A15C4000000000004F7ABF00000000A401AC40000000E0B1A45C4000000000E090813F0C00000013000000BA0500003C0000000600000002000000
310
00000000BB01AC40000000E0E5A8574000000000E090813F00000000BB01AC40000000A0D0A15C4000000000E090813F0C00000013000000C20500003C000000060000000200000000000000A401AC40000000E0E5A8574000000000004F7ABF00000000BB01AC40000000E0E5A8574000000000E090813F0C000000130000
310
00CA0500003C0000000600000002000000000000C0E0FCAB40000000A004A6574000000000E090813F00000000A401AC40000000A004A6574000000000E090813F0C00000013000000D20500003C0000000600000002000000000000C0E0FCAB40000000E0E5A8574000000000004F7ABF000000C0E0FCAB40000000A004A6
310
574000000000E090813F0C00000013000000DA0500003C0000000600000002000000000000C0E0FCAB40000000E0E5A857400000000058013940000000C0E0FCAB40000000A004A657400000000081FD38400C00000013000000E20500003C0000000600000002000000000000C0E0FCAB40000000A004A657400000000081
310
FD384000000000A401AC40000000A004A657400000000081FD38400C00000013000000EA0500003C000000060000000200000000000000A401AC40000000E0E5A85740000000005801394000000000A401AC40000000A004A657400000000081FD38400C00000013000000F20500003C000000060000000200000000000000
310
A401AC40000000E0E5A85740000000005801394000000000BB01AC40000000E0E5A857400000000081FD38400C00000013000000FA0500003C000000060000000200000000000000BB01AC40000000E0E5A857400000000081FD384000000000BB01AC40000000A0D0A15C400000000081FD38400C00000013000000020600
310
003C000000060000000200000000000000A401AC40000000A0D0A15C40000000005801394000000000BB01AC40000000A0D0A15C400000000081FD38400C000000130000000A0600003C000000060000000200000000000000A401AC40000000A0D0A15C40000000005801394000000000A401AC40000000E0B1A45C400000
310
000081FD38400C00000013000000120600003C0000000600000002000000000000C0E0FCAB40000000E0B1A45C400000000081FD384000000000A401AC40000000E0B1A45C400000000081FD38400C000000130000001A0600003C0000000600000002000000000000C0E0FCAB40000000A0D0A15C40000000005801394000
310
0000C0E0FCAB40000000E0B1A45C400000000081FD38400C00000013000000220600003C0000000600000002000000000000C0E0FCAB40000000A0D0A15C400000000058013940000000C0C9FCAB40000000A0D0A15C400000000081FD38400C000000130000002A0600003C0000000600000002000000000000C0C9FCAB40
310
000000E0E5A857400000000081FD3840000000C0C9FCAB40000000A0D0A15C400000000081FD38400C00000013000000320600003C0000000600000002000000000000C0E0FCAB40000000E0E5A857400000000058013940000000C0C9FCAB40000000E0E5A857400000000081FD38400C000000130000003A0600003C0000
310
00060000000200000000000000A401AC40000000C00EA5574000000000706EAB3F00000000BB01AC40000000A004A6574000000000706EAB3F0C00000013000000420600003C000000060000000200000000000000BB01AC40000000A004A6574000000000706EAB3F00000000BB01AC40000000A004A6574000000000FCF1
310
38400C000000130000004A0600003C000000060000000200000000000000A401AC40000000C00EA5574000000000FCF1384000000000BB01AC40000000A004A6574000000000FCF138400C00000013000000520600003C0000000600000002000000000000C0C9FCAB40000000A004A6574000000000706EAB3F000000C0C9
310
FCAB40000000A004A6574000000000FCF138400C000000130000005A0600003C0000000600000002000000000000C0E0FCAB40000000C00EA5574000000000706EAB3F000000C0C9FCAB40000000A004A6574000000000706EAB3F0C00000013000000620600003C0000000600000002000000000000C0C201AC40000000A0
310
D0A15C4000000000706EAB3F00000000BB01AC4000000000B2A45C4000000000706EAB3F0C000000130000006A0600003C000000060000000200000000000000BB01AC4000000000B2A45C4000000000706EAB3F00000000BB01AC40000000E0B1A45C4000000000FCF138400C00000013000000720600003C000000060000
310
0002000000000000C0C201AC40000000A0D0A15C4000000000FCF1384000000000BB01AC40000000E0B1A45C4000000000FCF138400C000000130000007A0600003C0000000600000002000000000000C0E0FCAB40000000C0A7A55C4000000000706EAB3F000000C0C9FCAB40000000E0B1A45C4000000000706EAB3F0C00
310
000013000000820600003C0000000600000002000000000000C0C9FCAB40000000E0B1A45C4000000000706EAB3F000000C0C9FCAB40000000E0B1A45C4000000000FCF138400C000000130000008A0600003C0000000600000002000000000000C0E0FCAB40000000C0A7A55C4000000000FCF13840000000C0C9FCAB4000
310
0000E0B1A45C4000000000FCF138400C00000013000000920600003C000000060000000200000000000080DCD9AB40000000E0E5A8574000000000004F7ABF00000080C5D9AB40000000E0E5A8574000000000E090813F0C000000130000009A0600003C000000060000000200000000000080C5D9AB40000000E0E5A85740
310
00000000E090813F00000080C5D9AB40000000A0D0A15C4000000000E090813F0C00000013000000A20600003C000000060000000200000000000080DCD9AB40000000A0D0A15C4000000000004F7ABF00000080C5D9AB40000000A0D0A15C4000000000E090813F0C00000013000000AA0600003C00000006000000020000
310
0000000080DCD9AB40000000A0D0A15C4000000000004F7ABF00000080DCD9AB40000000E0B1A45C4000000000E090813F0C00000013000000B20600003C000000060000000200000000000080DCD9AB40000000E0B1A45C4000000000E090813F000000C09FDEAB40000000E0B1A45C4000000000E090813F0C0000001300
310
0000BA0600003C0000000600000002000000000000C09FDEAB40000000A0D0A15C4000000000004F7ABF000000C09FDEAB40000000E0B1A45C4000000000E090813F0C00000013000000C20600003C0000000600000002000000000000C0B6DEAB40000000E0E5A8574000000000E090813F000000C0B6DEAB40000000A0D0
310
A15C4000000000E090813F0C00000013000000CA0600003C0000000600000002000000000000C09FDEAB40000000E0E5A8574000000000004F7ABF000000C0B6DEAB40000000E0E5A8574000000000E090813F0C00000013000000D20600003C000000060000000200000000000080DCD9AB40000000A004A6574000000000
310
E090813F000000C09FDEAB40000000A004A6574000000000E090813F0C00000013000000DA0600003C000000060000000200000000000080DCD9AB40000000E0E5A8574000000000004F7ABF00000080DCD9AB40000000A004A6574000000000E090813F0C00000013000000E20600003C0000000600000002000000000000
310
80DCD9AB40000000E0E5A85740000000005801394000000080DCD9AB40000000A004A657400000000081FD38400C00000013000000EA0600003C000000060000000200000000000080DCD9AB40000000A004A657400000000081FD3840000000C09FDEAB40000000A004A657400000000081FD38400C00000013000000F206
310
00003C0000000600000002000000000000C09FDEAB40000000E0E5A857400000000058013940000000C09FDEAB40000000A004A657400000000081FD38400C00000013000000FA0600003C0000000600000002000000000000C09FDEAB40000000E0E5A857400000000058013940000000C0B6DEAB40000000E0E5A8574000
310
00000081FD38400C00000013000000020700003C0000000600000002000000000000C0B6DEAB40000000E0E5A857400000000081FD3840000000C0B6DEAB40000000A0D0A15C400000000081FD38400C000000130000000A0700003C0000000600000002000000000000C09FDEAB40000000A0D0A15C400000000058013940
310
000000C0B6DEAB40000000A0D0A15C400000000081FD38400C00000013000000120700003C0000000600000002000000000000C09FDEAB40000000A0D0A15C400000000058013940000000C09FDEAB40000000E0B1A45C400000000081FD38400C000000130000001A0700003C000000060000000200000000000080DCD9AB
310
40000000E0B1A45C400000000081FD3840000000C09FDEAB40000000E0B1A45C400000000081FD38400C00000013000000220700003C000000060000000200000000000080DCD9AB40000000A0D0A15C40000000005801394000000080DCD9AB40000000E0B1A45C400000000081FD38400C000000130000002A0700003C00
310
0000060000000200000000000080DCD9AB40000000A0D0A15C40000000005801394000000080C5D9AB40000000A0D0A15C400000000081FD38400C00000013000000320700003C000000060000000200000000000080C5D9AB40000000E0E5A857400000000081FD384000000080C5D9AB40000000A0D0A15C400000000081
310
FD38400C000000130000003A0700003C000000060000000200000000000080DCD9AB40000000E0E5A85740000000005801394000000080C5D9AB40000000E0E5A857400000000081FD38400C00000013000000420700003C0000000600000002000000000000C09FDEAB40000000C00EA5574000000000706EAB3F000000C0
310
B6DEAB40000000A004A6574000000000706EAB3F0C000000130000004A0700003C0000000600000002000000000000C0B6DEAB40000000A004A6574000000000706EAB3F000000C0B6DEAB40000000A004A6574000000000FCF138400C00000013000000520700003C0000000600000002000000000000C09FDEAB40000000
310
C00EA5574000000000FCF13840000000C0B6DEAB40000000A004A6574000000000FCF138400C000000130000005A0700003C000000060000000200000000000080C5D9AB40000000A004A6574000000000706EAB3F00000080C5D9AB40000000A004A6574000000000FCF138400C00000013000000620700003C0000000600
310
00000200000000000080DCD9AB40000000C00EA5574000000000706EAB3F00000080C5D9AB40000000A004A6574000000000706EAB3F0C000000130000006A0700003C000000060000000200000000000080BEDEAB40000000A0D0A15C4000000000706EAB3F000000C0B6DEAB4000000000B2A45C4000000000706EAB3F0C
310
00000013000000720700003C0000000600000002000000000000C0B6DEAB4000000000B2A45C4000000000706EAB3F000000C0B6DEAB40000000E0B1A45C4000000000FCF138400C000000130000007A0700003C000000060000000200000000000080BEDEAB40000000A0D0A15C4000000000FCF13840000000C0B6DEAB40
310
000000E0B1A45C4000000000FCF138400C00000013000000820700003C000000060000000200000000000080DCD9AB40000000C0A7A55C4000000000706EAB3F00000080C5D9AB40000000E0B1A45C4000000000706EAB3F0C000000130000008A0700003C000000060000000200000000000080C5D9AB40000000E0B1A45C
310
4000000000706EAB3F00000080C5D9AB40000000E0B1A45C4000000000FCF138400C00000013000000920700003C000000060000000200000000000080DCD9AB40000000C0A7A55C4000000000FCF1384000000080C5D9AB40000000E0B1A45C4000000000FCF138400C000000130000009A0700003C000000060000000200
310
000000000060BE9EAB400000008004A6574000000040AA9403C000000040C49EAB400000008004A6574000000000C9D903C00C00000013000000A20700003C0000000600000002000000000000C0B69EAB40000000C0E5A8574000000040AA9403C000000060BE9EAB400000008004A6574000000040AA9403C00C00000013
310
000000AA0700003C0000000600000002000000000000C0B69EAB40000000C0E5A8574000000040AA9403C000000060BE9EAB40000000C0E5A8574000000020D3F003C00C00000013000000B20700003C000000060000000200000000000060BE9EAB40000000C0E5A8574000000020D3F003C000000040C49EAB4000000080
310
04A6574000000000C9D903C00C00000013000000BA0700003C0000000600000002000000000000A0CA84AC40000000C0E5A8574000000020D3F003C0000000C0C484AC40000000E0BCA6574000000020D3F003C00C00000013000000C20700003C000000060000000200000000000040D284AC40000000C0E5A85740000000
310
40AA9403C0000000A0CA84AC40000000C0E5A8574000000020D3F003C00C00000013000000CA0700003C000000060000000200000000000040D284AC40000000C0E5A8574000000040AA9403C0000000A0CA84AC400000008004A6574000000040AA9403C00C00000013000000D20700003C00000006000000020000000000
310
00A0CA84AC400000008004A6574000000040AA9403C0000000C0C484AC40000000E0BCA6574000000020D3F003C00C00000013000000DA0700003C000000060000000200000000000080B384AC40000000C00EA5574000000040AA9403C000000080B384AC400000008004A6574000000020D3F003C00C00000013000000E2
310
0700003C0000000600000002000000000000C0B69EAB40000000C0D0A15C4000000040AA9403C000000060BE9EAB4000000000B2A45C4000000040AA9403C00C00000013000000EA0700003C000000060000000200000000000060BE9EAB4000000000B2A45C4000000040AA9403C000000060BE9EAB40000000A0F9A35C40
310
00000000C9D903C00C00000013000000F20700003C000000060000000200000000000080D59EAB40000000C0A7A55C4000000040AA9403C000000080D59EAB4000000000B2A45C4000000020D3F003C00C00000013000000FA0700003C000000060000000200000000000080D59EAB4000000000B2A45C4000000020D3F003
310
C000000060BE9EAB40000000A0F9A35C4000000000C9D903C00C00000013000000020800003C000000060000000200000000000080B384AC4000000000B2A45C4000000020D3F003C0000000C0C484AC4000000020F9A35C4000000020D3F003C00C000000130000000A0800003C000000060000000200000000000080B384
310
AC40000000C0A7A55C4000000040AA9403C000000080B384AC4000000000B2A45C4000000020D3F003C00C00000013000000120800003C000000060000000200000000000080B384AC40000000C0A7A55C4000000040AA9403C0000000A0CA84AC4000000040B1A45C4000000040AA9403C00C000000130000001A0800003C
310
0000000600000002000000000000A0CA84AC4000000040B1A45C4000000040AA9403C0000000C0C484AC4000000020F9A35C4000000020D3F003C00C00000013000000220800003C000000060000000200000000000040D284AC40000000C0D0A15C4000000040AA9403C0000000A0CA84AC40000000C0D0A15C4000000020
310
D3F003C00C000000130000002A0800003C000000060000000200000000000080D59EAB40000000C00EA55740000000001801B1BF00000080D59EAB400000008004A6574000000000F0EF95BF0C00000013000000320800003C000000060000000200000000000080D59EAB400000008004A6574000000000F0EF95BF000000
310
40C49EAB400000008004A657400000000040CCA0BF0C000000130000003A0800003C000000060000000200000000000060BE9EAB40000000C0E5A8574000000000201F96BF00000040C49EAB400000008004A657400000000040CCA0BF0C00000013000000420800003C0000000600000002000000000000C0B69EAB400000
310
00C0E5A85740000000001801B1BF00000060BE9EAB40000000C0E5A8574000000000201F96BF0C000000130000004A0800003C0000000600000002000000000000C0B69EAB40000000C0E5A85740000000001801B1BF00000060BE9EAB400000008004A65740000000001801B1BF0C00000013000000520800003C00000006
310
0000000200000000000040D284AC40000000C0E5A85740000000001801B1BF000000A0CA84AC40000000C0E5A8574000000000F0EF95BF0C000000130000005A0800003C0000000600000002000000000000A0CA84AC40000000C0E5A8574000000000F0EF95BF000000A0CA84AC40000000E0BCA657400000000070BAA0BF
310
0C00000013000000620800003C000000060000000200000000000080B384AC400000008004A6574000000000B0EF95BF000000A0CA84AC40000000E0BCA657400000000070BAA0BF0C000000130000006A0800003C000000060000000200000000000080B384AC40000000C00EA55740000000001801B1BF00000080B384AC
310
400000008004A6574000000000B0EF95BF0C00000013000000720800003C0000000600000002000000000000C0B69EAB40000000C0D0A15C40000000001801B1BF00000060BE9EAB40000000C0D0A15C4000000000F0EF95BF0C000000130000007A0800003C000000060000000200000000000060BE9EAB40000000C0D0A1
310
5C4000000000F0EF95BF00000060BE9EAB40000000A0F9A35C400000000070BAA0BF0C00000013000000820800003C000000060000000200000000000080D59EAB4000000000B2A45C4000000000B0EF95BF00000060BE9EAB40000000A0F9A35C400000000070BAA0BF0C000000130000008A0800003C0000000600000002
310
00000000000080D59EAB40000000C0A7A55C40000000001801B1BF00000080D59EAB4000000000B2A45C4000000000B0EF95BF0C00000013000000920800003C000000060000000200000000000080B384AC40000000C0A7A55C40000000001801B1BF00000080B384AC4000000000B2A45C4000000000F0EF95BF0C000000
310
130000009A0800003C000000060000000200000000000080B384AC4000000000B2A45C4000000000F0EF95BF000000C0C484AC4000000000B2A45C400000000040CCA0BF0C00000013000000A20800003C0000000600000002000000000000A0CA84AC40000000C0D0A15C4000000000201F96BF000000C0C484AC40000000
310
00B2A45C400000000040CCA0BF0C00000013000000AA0800003C000000060000000200000000000040D284AC40000000C0D0A15C40000000001801B1BF000000A0CA84AC40000000C0D0A15C4000000000201F96BF0C00000013000000B20800003C0000000600000002000000000000C0C9FCAB40000000A004A657400000
310
0000706EAB3F00000080CFFCAB40000000A004A6574000000000904D943F0C00000013000000BA0800003C000000060000000200000000000000C2FCAB40000000E0E5A8574000000000706EAB3F000000C0C9FCAB40000000A004A6574000000000706EAB3F0C00000013000000C20800003C000000060000000200000000
310
000000C2FCAB40000000E0E5A8574000000000706EAB3F000000C0C9FCAB40000000E0E5A8574000000000E090813F0C00000013000000CA0800003C0000000600000002000000000000C0C9FCAB40000000E0E5A8574000000000E090813F00000080CFFCAB40000000A004A6574000000000904D943F0C00000013000000
310
D20800003C000000060000000200000000000000BB01AC40000000E0E5A8574000000000E090813F00000040B501AC40000000E0BCA6574000000000E090813F0C00000013000000DA0800003C0000000600000002000000000000C0C201AC40000000E0E5A8574000000000706EAB3F00000000BB01AC40000000E0E5A857
310
4000000000E090813F0C00000013000000E20800003C0000000600000002000000000000C0C201AC40000000E0E5A8574000000000706EAB3F00000000BB01AC40000000A004A6574000000000706EAB3F0C00000013000000EA0800003C000000060000000200000000000000BB01AC40000000A004A6574000000000706E
310
AB3F00000040B501AC40000000E0BCA6574000000000E090813F0C00000013000000F20800003C000000060000000200000000000000A401AC40000000C00EA5574000000000706EAB3F00000000A401AC40000000A004A6574000000000E090813F0C00000013000000FA0800003C000000060000000200000000000000C2
310
FCAB40000000A0D0A15C4000000000706EAB3F000000C0C9FCAB40000000E0B1A45C4000000000706EAB3F0C00000013000000020900003C0000000600000002000000000000C0C9FCAB40000000E0B1A45C4000000000706EAB3F000000C0C9FCAB40000000A0F9A35C4000000000904D943F0C000000130000000A090000
310
3C0000000600000002000000000000C0E0FCAB40000000C0A7A55C4000000000706EAB3F000000C0E0FCAB40000000E0B1A45C4000000000E090813F0C00000013000000120900003C0000000600000002000000000000C0E0FCAB40000000E0B1A45C4000000000E090813F000000C0C9FCAB40000000A0F9A35C40000000
310
00904D943F0C000000130000001A0900003C000000060000000200000000000000A401AC40000000E0B1A45C4000000000E090813F00000040B501AC40000000A0F9A35C4000000000E090813F0C00000013000000220900003C000000060000000200000000000000A401AC40000000C0A7A55C4000000000706EAB3F0000
310
0000A401AC40000000E0B1A45C4000000000E090813F0C000000130000002A0900003C000000060000000200000000000000A401AC40000000C0A7A55C4000000000706EAB3F00000000BB01AC4000000000B2A45C4000000000706EAB3F0C00000013000000320900003C000000060000000200000000000000BB01AC4000
310
000000B2A45C4000000000706EAB3F00000040B501AC40000000A0F9A35C4000000000E090813F0C000000130000003A0900003C0000000600000002000000000000C0C201AC40000000A0D0A15C4000000000706EAB3F00000000BB01AC40000000A0D0A15C4000000000E090813F0C00000013000000420900003C000000
310
0600000002000000000000C0E0FCAB40000000C00EA5574000000000FCF13840000000C0E0FCAB40000000A004A657400000000081FD38400C000000130000004A0900003C0000000600000002000000000000C0E0FCAB40000000A004A657400000000081FD384000000080CFFCAB40000000A004A65740000000C09FFA38
310
400C00000013000000520900003C0000000600000002000000000000C0C9FCAB40000000E0E5A857400000000081FD384000000080CFFCAB40000000A004A65740000000C09FFA38400C000000130000005A0900003C000000060000000200000000000000C2FCAB40000000E0E5A8574000000000FCF13840000000C0C9FC
310
AB40000000E0E5A857400000000081FD38400C00000013000000620900003C000000060000000200000000000000C2FCAB40000000E0E5A8574000000000FCF13840000000C0C9FCAB40000000A004A6574000000000FCF138400C000000130000006A0900003C0000000600000002000000000000C0C201AC40000000E0E5
310
A8574000000000FCF1384000000000BB01AC40000000E0E5A857400000000081FD38400C00000013000000720900003C000000060000000200000000000000BB01AC40000000E0E5A857400000000081FD384000000000BB01AC40000000E0BCA65740000000C09FFA38400C000000130000007A0900003C00000006000000
310
0200000000000000A401AC40000000A004A657400000000081FD384000000000BB01AC40000000E0BCA65740000000C09FFA38400C00000013000000820900003C000000060000000200000000000000A401AC40000000C00EA5574000000000FCF1384000000000A401AC40000000A004A657400000000081FD38400C0000
310
00130000008A0900003C000000060000000200000000000000C2FCAB40000000A0D0A15C4000000000FCF13840000000C0C9FCAB40000000A0D0A15C400000000081FD38400C00000013000000920900003C0000000600000002000000000000C0C9FCAB40000000A0D0A15C400000000081FD3840000000C0C9FCAB400000
310
00A0F9A35C40000000C09FFA38400C000000130000009A0900003C0000000600000002000000000000C0E0FCAB40000000E0B1A45C400000000081FD3840000000C0C9FCAB40000000A0F9A35C40000000C09FFA38400C00000013000000A20900003C0000000600000002000000000000C0E0FCAB40000000C0A7A55C4000
310
000000FCF13840000000C0E0FCAB40000000E0B1A45C400000000081FD38400C00000013000000AA0900003C000000060000000200000000000000A401AC40000000C0A7A55C4000000000FCF1384000000000A401AC40000000E0B1A45C400000000081FD38400C00000013000000B20900003C0000000600000002000000
310
00000000A401AC40000000E0B1A45C400000000081FD384000000040B501AC40000000E0B1A45C40000000C09FFA38400C00000013000000BA0900003C000000060000000200000000000000BB01AC40000000A0D0A15C400000000081FD384000000040B501AC40000000E0B1A45C40000000C09FFA38400C000000130000
310
00C20900003C0000000600000002000000000000C0C201AC40000000A0D0A15C4000000000FCF1384000000000BB01AC40000000A0D0A15C400000000081FD38400C00000013000000CA0900003C000000060000000200000000000080C5D9AB40000000A004A6574000000000706EAB3F00000040CBD9AB40000000A004A6
310
574000000000904D943F0C00000013000000D20900003C0000000600000002000000000000C0BDD9AB40000000E0E5A8574000000000706EAB3F00000080C5D9AB40000000A004A6574000000000706EAB3F0C00000013000000DA0900003C0000000600000002000000000000C0BDD9AB40000000E0E5A857400000000070
310
6EAB3F00000080C5D9AB40000000E0E5A8574000000000E090813F0C00000013000000E20900003C000000060000000200000000000080C5D9AB40000000E0E5A8574000000000E090813F00000040CBD9AB40000000A004A6574000000000904D943F0C00000013000000EA0900003C0000000600000002000000000000C0
310
B6DEAB40000000E0E5A8574000000000E090813F00000000B1DEAB40000000E0BCA6574000000000E090813F0C00000013000000F20900003C000000060000000200000000000080BEDEAB40000000E0E5A8574000000000706EAB3F000000C0B6DEAB40000000E0E5A8574000000000E090813F0C00000013000000FA0900
310
003C000000060000000200000000000080BEDEAB40000000E0E5A8574000000000706EAB3F000000C0B6DEAB40000000A004A6574000000000706EAB3F0C00000013000000020A00003C0000000600000002000000000000C0B6DEAB40000000A004A6574000000000706EAB3F00000000B1DEAB40000000E0BCA657400000
310
0000E090813F0C000000130000000A0A00003C0000000600000002000000000000C09FDEAB40000000C00EA5574000000000706EAB3F000000C09FDEAB40000000A004A6574000000000E090813F0C00000013000000120A00003C0000000600000002000000000000C0BDD9AB40000000A0D0A15C4000000000706EAB3F00
310
000080C5D9AB40000000E0B1A45C4000000000706EAB3F0C000000130000001A0A00003C000000060000000200000000000080C5D9AB40000000E0B1A45C4000000000706EAB3F00000080C5D9AB40000000A0F9A35C4000000000904D943F0C00000013000000220A00003C000000060000000200000000000080DCD9AB40
310
000000C0A7A55C4000000000706EAB3F00000080DCD9AB40000000E0B1A45C4000000000E090813F0C000000130000002A0A00003C000000060000000200000000000080DCD9AB40000000E0B1A45C4000000000E090813F00000080C5D9AB40000000A0F9A35C4000000000904D943F0C00000013000000320A00003C0000
310
000600000002000000000000C09FDEAB40000000E0B1A45C4000000000E090813F00000000B1DEAB40000000A0F9A35C4000000000E090813F0C000000130000003A0A00003C0000000600000002000000000000C09FDEAB40000000C0A7A55C4000000000706EAB3F000000C09FDEAB40000000E0B1A45C4000000000E090
310
813F0C00000013000000420A00003C0000000600000002000000000000C09FDEAB40000000C0A7A55C4000000000706EAB3F000000C0B6DEAB4000000000B2A45C4000000000706EAB3F0C000000130000004A0A00003C0000000600000002000000000000C0B6DEAB4000000000B2A45C4000000000706EAB3F00000000B1
310
DEAB40000000A0F9A35C4000000000E090813F0C00000013000000520A00003C000000060000000200000000000080BEDEAB40000000A0D0A15C4000000000706EAB3F000000C0B6DEAB40000000A0D0A15C4000000000E090813F0C000000130000005A0A00003C000000060000000200000000000080DCD9AB40000000C0
310
0EA5574000000000FCF1384000000080DCD9AB40000000A004A657400000000081FD38400C00000013000000620A00003C000000060000000200000000000080DCD9AB40000000A004A657400000000081FD384000000040CBD9AB40000000A004A65740000000C09FFA38400C000000130000006A0A00003C000000060000
310
000200000000000080C5D9AB40000000E0E5A857400000000081FD384000000040CBD9AB40000000A004A65740000000C09FFA38400C00000013000000720A00003C0000000600000002000000000000C0BDD9AB40000000E0E5A8574000000000FCF1384000000080C5D9AB40000000E0E5A857400000000081FD38400C00
310
0000130000007A0A00003C0000000600000002000000000000C0BDD9AB40000000E0E5A8574000000000FCF1384000000080C5D9AB40000000A004A6574000000000FCF138400C00000013000000820A00003C000000060000000200000000000080BEDEAB40000000E0E5A8574000000000FCF13840000000C0B6DEAB4000
310
0000E0E5A857400000000081FD38400C000000130000008A0A00003C0000000600000002000000000000C0B6DEAB40000000E0E5A857400000000081FD3840000000C0B6DEAB40000000E0BCA65740000000C09FFA38400C00000013000000920A00003C0000000600000002000000000000C09FDEAB40000000A004A65740
310
0000000081FD3840000000C0B6DEAB40000000E0BCA65740000000C09FFA38400C000000130000009A0A00003C0000000600000002000000000000C09FDEAB40000000C00EA5574000000000FCF13840000000C09FDEAB40000000A004A657400000000081FD38400C00000013000000A20A00003C00000006000000020000
310
00000000C0BDD9AB40000000A0D0A15C4000000000FCF1384000000080C5D9AB40000000A0D0A15C400000000081FD38400C00000013000000AA0A00003C000000060000000200000000000080C5D9AB40000000A0D0A15C400000000081FD384000000080C5D9AB40000000A0F9A35C40000000C09FFA38400C0000001300
310
0000B20A00003C000000060000000200000000000080DCD9AB40000000E0B1A45C400000000081FD384000000080C5D9AB40000000A0F9A35C40000000C09FFA38400C00000013000000BA0A00003C000000060000000200000000000080DCD9AB40000000C0A7A55C4000000000FCF1384000000080DCD9AB40000000E0B1
310
A45C400000000081FD38400C00000013000000C20A00003C0000000600000002000000000000C09FDEAB40000000C0A7A55C4000000000FCF13840000000C09FDEAB40000000E0B1A45C400000000081FD38400C00000013000000CA0A00003C0000000600000002000000000000C09FDEAB40000000E0B1A45C4000000000
310
81FD384000000000B1DEAB40000000E0B1A45C40000000C09FFA38400C00000013000000D20A00003C0000000600000002000000000000C0B6DEAB40000000A0D0A15C400000000081FD384000000000B1DEAB40000000E0B1A45C40000000C09FFA38400C00000013000000DA0A00003C0000000600000002000000000000
310
80BEDEAB40000000A0D0A15C4000000000FCF13840000000C0B6DEAB40000000A0D0A15C400000000081FD3840
100
AcDbSubDMesh
 71
     2
 72
     0
 91
        0
 92
      168
 10
3535.4169921875
 20
94.57902526855468
 30
-2.447590351104736
 10
3650.350585937501
 20
94.63902282714844
 30
-2.507590293884277
 10
3535.35693359375
 20
114.5283660888672
 30
-2.447590351104736
 10
3650.350585937501
 20
114.5283660888672
 30
-2.507590293884277
 10
3535.4169921875
 20
94.57902526855468
 30
-0.0664229393005371
 10
3650.41064453125
 20
94.63902282714844
 30
-0.0664229393005371
 10
3535.35693359375
 20
114.5283660888672
 30
-0.0664229393005371
 10
3650.350585937501
 20
114.5883636474609
 30
-0.0664229393005371
 10
3582.43896484375
 20
94.57902526855468
 30
0.0535769462585449
 10
3584.8203125
 20
94.63903045654296
 30
-0.0064229965209961
 10
3582.37890625
 20
114.5283584594726
 30
0.0535769462585449
 10
3584.8203125
 20
114.5283584594726
 30
-0.0064229965209961
 10
3582.43896484375
 20
94.57902526855468
 30
24.94525146484375
 10
3584.88037109375
 20
94.63903045654296
 30
24.94525146484375
 10
3582.37890625
 20
114.5283584594726
 30
24.94525146484375
 10
3584.8203125
 20
114.5883636474609
 30
24.94525146484375
 10
3564.9306640625
 20
94.57902526855468
 30
0.0535769462585449
 10
3567.31201171875
 20
94.63903045654296
 30
-0.0064229965209961
 10
3564.87060546875
 20
114.5283584594726
 30
0.0535769462585449
 10
3567.31201171875
 20
114.5283584594726
 30
-0.0064229965209961
 10
3564.9306640625
 20
94.57902526855468
 30
24.94525146484375
 10
3567.3720703125
 20
94.63903045654296
 30
24.94525146484375
 10
3564.87060546875
 20
114.5283584594726
 30
24.94525146484375
 10
3567.31201171875
 20
114.5883636474609
 30
24.94525146484375
 10
3535.35693359375
 20
94.63902282714844
 30
-2.447590351104736
 10
3535.4169921875
 20
94.63902282714844
 30
-2.507590293884277
 10
3650.41064453125
 20
94.63902282714844
 30
-2.447590351104736
 10
3650.350585937501
 20
94.57902526855468
 30
-2.447590351104736
 10
3535.4169921875
 20
114.5883636474609
 30
-2.447590351104736
 10
3535.4169921875
 20
114.5283660888672
 30
-2.507590293884277
 10
3650.350585937501
 20
114.5883636474609
 30
-2.447590351104736
 10
3650.41064453125
 20
114.5283660888672
 30
-2.447590351104736
 10
3535.4169921875
 20
94.63902282714844
 30
-0.0064229965209961
 10
3535.35693359375
 20
94.63902282714844
 30
-0.0664229393005371
 10
3650.350585937501
 20
94.63902282714844
 30
-0.0064229965209961
 10
3650.350585937501
 20
94.57902526855468
 30
-0.0664229393005371
 10
3535.4169921875
 20
114.5283660888672
 30
-0.0064229965209961
 10
3535.4169921875
 20
114.5883636474609
 30
-0.0664229393005371
 10
3650.350585937501
 20
114.5283660888672
 30
-0.0064229965209961
 10
3650.41064453125
 20
114.5283660888672
 30
-0.0664229393005371
 10
3582.37890625
 20
94.63903045654296
 30
0.0535769462585449
 10
3582.43896484375
 20
94.63903045654296
 30
-0.0064229965209961
 10
3584.88037109375
 20
94.63903045654296
 30
0.0535769462585449
 10
3584.8203125
 20
94.57902526855468
 30
0.0535769462585449
 10
3582.43896484375
 20
114.5883636474609
 30
0.0535769462585449
 10
3582.43896484375
 20
114.5283584594726
 30
-0.0064229965209961
 10
3584.8203125
 20
114.5883636474609
 30
0.0535769462585449
 10
3584.88037109375
 20
114.5283584594726
 30
0.0535769462585449
 10
3582.43896484375
 20
94.63903045654296
 30
25.0052490234375
 10
3582.37890625
 20
94.63903045654296
 30
24.94525146484375
 10
3584.8203125
 20
94.63903045654296
 30
25.0052490234375
 10
3584.8203125
 20
94.57902526855468
 30
24.94525146484375
 10
3582.43896484375
 20
114.5283584594726
 30
25.0052490234375
 10
3582.43896484375
 20
114.5883636474609
 30
24.94525146484375
 10
3584.8203125
 20
114.5283584594726
 30
25.0052490234375
 10
3584.88037109375
 20
114.5283584594726
 30
24.94525146484375
 10
3564.87060546875
 20
94.63903045654296
 30
0.0535769462585449
 10
3564.9306640625
 20
94.63903045654296
 30
-0.0064229965209961
 10
3567.3720703125
 20
94.63903045654296
 30
0.0535769462585449
 10
3567.31201171875
 20
94.57902526855468
 30
0.0535769462585449
 10
3564.9306640625
 20
114.5883636474609
 30
0.0535769462585449
 10
3564.9306640625
 20
114.5283584594726
 30
-0.0064229965209961
 10
3567.31201171875
 20
114.5883636474609
 30
0.0535769462585449
 10
3567.3720703125
 20
114.5283584594726
 30
0.0535769462585449
 10
3564.9306640625
 20
94.63903045654296
 30
25.0052490234375
 10
3564.87060546875
 20
94.63903045654296
 30
24.94525146484375
 10
3567.31201171875
 20
94.63903045654296
 30
25.0052490234375
 10
3567.31201171875
 20
94.57902526855468
 30
24.94525146484375
 10
3564.9306640625
 20
114.5283584594726
 30
25.0052490234375
 10
3564.9306640625
 20
114.5883636474609
 30
24.94525146484375
 10
3567.31201171875
 20
114.5283584594726
 30
25.0052490234375
 10
3567.3720703125
 20
114.5283584594726
 30
24.94525146484375
 10
3535.371826171875
 20
94.59402465820312
 30
-2.447590351104736
 10
3535.371826171875
 20
94.63902282714844
 30
-2.492590188980102
 10
3535.4169921875
 20
94.59402465820312
 30
-2.492590188980102
 10
3650.395751953125
 20
94.63902282714844
 30
-2.492590188980102
 10
3650.395751953125
 20
94.59402465820312
 30
-2.447590351104736
 10
3650.350585937501
 20
94.59402465820312
 30
-2.492590188980102
 10
3535.371826171875
 20
114.5733642578125
 30
-2.447590351104736
 10
3535.4169921875
 20
114.5733642578125
 30
-2.492590188980102
 10
3535.371826171875
 20
114.5283660888672
 30
-2.492590188980102
 10
3650.350585937501
 20
114.5733642578125
 30
-2.492590188980102
 10
3650.395751953125
 20
114.5733184814453
 30
-2.447590351104736
 10
3650.395751953125
 20
114.5283660888672
 30
-2.492590188980102
 10
3535.4169921875
 20
94.59402465820312
 30
-0.0214231014251709
 10
3535.371826171875
 20
94.63902282714844
 30
-0.0216031074523926
 10
3535.371826171875
 20
94.59402465820312
 30
-0.0664229393005371
 10
3650.395751953125
 20
94.63902282714844
 30
-0.0214231014251709
 10
3650.350585937501
 20
94.59402465820312
 30
-0.0214221477508545
 10
3650.395751953125
 20
94.59402465820312
 30
-0.0664229393005371
 10
3535.371826171875
 20
114.5283660888672
 30
-0.0214231014251709
 10
3535.4169921875
 20
114.5733642578125
 30
-0.0214221477508545
 10
3535.371826171875
 20
114.5733642578125
 30
-0.0664229393005371
 10
3650.350585937501
 20
114.5733642578125
 30
-0.0214231014251709
 10
3650.395751953125
 20
114.5283660888672
 30
-0.0216031074523926
 10
3650.395751953125
 20
114.5733642578125
 30
-0.0664229393005371
 10
3582.394042968751
 20
94.59403228759766
 30
0.0535769462585449
 10
3582.394042968751
 20
94.63903045654296
 30
0.0085771083831787
 10
3582.43896484375
 20
94.59403228759766
 30
0.0085771083831787
 10
3584.865234375
 20
94.63903045654296
 30
0.0085771083831787
 10
3584.865234375
 20
94.59403228759766
 30
0.0535769462585449
 10
3584.8203125
 20
94.59403228759766
 30
0.0085771083831787
 10
3582.394042968751
 20
114.5733566284179
 30
0.0535769462585449
 10
3582.43896484375
 20
114.5733566284179
 30
0.0085771083831787
 10
3582.394042968751
 20
114.5283584594726
 30
0.0085771083831787
 10
3584.8203125
 20
114.5733566284179
 30
0.0085771083831787
 10
3584.865234375
 20
114.5733642578125
 30
0.0535769462585449
 10
3584.865234375
 20
114.5283584594726
 30
0.0085771083831787
 10
3582.43896484375
 20
94.59403228759766
 30
24.99024963378906
 10
3582.394042968751
 20
94.63903045654296
 30
24.99024963378906
 10
3582.394042968751
 20
94.59403228759766
 30
24.94525146484375
 10
3584.865234375
 20
94.63903045654296
 30
24.99024963378906
 10
3584.8203125
 20
94.59403228759766
 30
24.99024963378906
 10
3584.865234375
 20
94.59403228759766
 30
24.94525146484375
 10
3582.394042968751
 20
114.5283584594726
 30
24.99024963378906
 10
3582.43896484375
 20
114.5733566284179
 30
24.99024963378906
 10
3582.394042968751
 20
114.5733566284179
 30
24.94525146484375
 10
3584.8203125
 20
114.5733566284179
 30
24.99024963378906
 10
3584.865234375
 20
114.5283584594726
 30
24.99024963378906
 10
3584.865234375
 20
114.5733566284179
 30
24.94525146484375
 10
3564.8857421875
 20
94.59403228759766
 30
0.0535769462585449
 10
3564.8857421875
 20
94.63903045654296
 30
0.0085771083831787
 10
3564.9306640625
 20
94.59403228759766
 30
0.0085771083831787
 10
3567.35693359375
 20
94.63903045654296
 30
0.0085771083831787
 10
3567.35693359375
 20
94.59403228759766
 30
0.0535769462585449
 10
3567.31201171875
 20
94.59403228759766
 30
0.0085771083831787
 10
3564.8857421875
 20
114.5733566284179
 30
0.0535769462585449
 10
3564.9306640625
 20
114.5733566284179
 30
0.0085771083831787
 10
3564.8857421875
 20
114.5283584594726
 30
0.0085771083831787
 10
3567.31201171875
 20
114.5733566284179
 30
0.0085771083831787
 10
3567.35693359375
 20
114.5733642578125
 30
0.0535769462585449
 10
3567.35693359375
 20
114.5283584594726
 30
0.0085771083831787
 10
3564.9306640625
 20
94.59403228759766
 30
24.99024963378906
 10
3564.8857421875
 20
94.63903045654296
 30
24.99024963378906
 10
3564.8857421875
 20
94.59403228759766
 30
24.94525146484375
 10
3567.35693359375
 20
94.63903045654296
 30
24.99024963378906
 10
3567.31201171875
 20
94.59403228759766
 30
24.99024963378906
 10
3567.35693359375
 20
94.59403228759766
 30
24.94525146484375
 10
3564.8857421875
 20
114.5283584594726
 30
24.99024963378906
 10
3564.9306640625
 20
114.5733566284179
 30
24.99024963378906
 10
3564.8857421875
 20
114.5733566284179
 30
24.94525146484375
 10
3567.31201171875
 20
114.5733566284179
 30
24.99024963378906
 10
3567.35693359375
 20
114.5283584594726
 30
24.99024963378906
 10
3567.35693359375
 20
114.5733566284179
 30
24.94525146484375
 10
3535.38330078125
 20
94.59402465820312
 30
-2.481340408325195
 10
3650.38427734375
 20
94.60527801513672
 30
-2.492590188980102
 10
3535.371826171875
 20
114.5621109008789
 30
-2.481340408325195
 10
3650.38427734375
 20
114.5620803833008
 30
-2.492590188980102
 10
3535.38330078125
 20
94.59402465820312
 30
-0.0328083038330078
 10
3650.395751953125
 20
94.60527801513672
 30
-0.0326724052429199
 10
3535.371826171875
 20
114.5621109008789
 30
-0.0326724052429199
 10
3650.38427734375
 20
114.5733642578125
 30
-0.0328083038330078
 10
3582.4052734375
 20
94.59403228759766
 30
0.0198271274566651
 10
3584.85400390625
 20
94.60527801513672
 30
0.0085771083831787
 10
3582.394042968751
 20
114.5621109008789
 30
0.0198271274566651
 10
3584.85400390625
 20
114.5621109008789
 30
0.0085771083831787
 10
3582.4052734375
 20
94.59403228759766
 30
24.97900009155273
 10
3584.865234375
 20
94.60527801513672
 30
24.97900009155273
 10
3582.394042968751
 20
114.5621109008789
 30
24.97900009155273
 10
3584.85400390625
 20
114.5733566284179
 30
24.97900009155273
 10
3564.89697265625
 20
94.59403228759766
 30
0.0198271274566651
 10
3567.345703125
 20
94.60527801513672
 30
0.0085771083831787
 10
3564.8857421875
 20
114.5621109008789
 30
0.0198271274566651
 10
3567.345703125
 20
114.5621109008789
 30
0.0085771083831787
 10
3564.89697265625
 20
94.59403228759766
 30
24.97900009155273
 10
3567.35693359375
 20
94.60527801513672
 30
24.97900009155273
 10
3564.8857421875
 20
114.5621109008789
 30
24.97900009155273
 10
3567.345703125
 20
114.5733566284179
 30
24.97900009155273
 93
      882
 90
        4
 90
       25
 90
       29
 90
        3
 90
        1
 90
        4
 90
       32
 90
       34
 90
       38
 90
       36
 90
        4
 90
        0
 90
       27
 90
       35
 90
        4
 90
        4
 90
       26
 90
       31
 90
       39
 90
        5
 90
        4
 90
       30
 90
       28
 90
       37
 90
        7
 90
        4
 90
        2
 90
       24
 90
       33
 90
        6
 90
        4
 90
       41
 90
       45
 90
       11
 90
        9
 90
        4
 90
       48
 90
       50
 90
       54
 90
       52
 90
        4
 90
        8
 90
       43
 90
       51
 90
       12
 90
        4
 90
       42
 90
       47
 90
       55
 90
       13
 90
        4
 90
       46
 90
       44
 90
       53
 90
       15
 90
        4
 90
       10
 90
       40
 90
       49
 90
       14
 90
        4
 90
       57
 90
       61
 90
       19
 90
       17
 90
        4
 90
       64
 90
       66
 90
       70
 90
       68
 90
        4
 90
       16
 90
       59
 90
       67
 90
       20
 90
        4
 90
       58
 90
       63
 90
       71
 90
       21
 90
        4
 90
       62
 90
       60
 90
       69
 90
       23
 90
        4
 90
       18
 90
       56
 90
       65
 90
       22
 90
        3
 90
        0
 90
      144
 90
       74
 90
        3
 90
        1
 90
      145
 90
       77
 90
        3
 90
        2
 90
      146
 90
       80
 90
        3
 90
        3
 90
      147
 90
       83
 90
        3
 90
        4
 90
      148
 90
       86
 90
        3
 90
        5
 90
      149
 90
       89
 90
        3
 90
        6
 90
      150
 90
       92
 90
        3
 90
        7
 90
      151
 90
       95
 90
        3
 90
        8
 90
      152
 90
       98
 90
        3
 90
        9
 90
      153
 90
      101
 90
        3
 90
       10
 90
      154
 90
      104
 90
        3
 90
       11
 90
      155
 90
      107
 90
        3
 90
       12
 90
      156
 90
      110
 90
        3
 90
       13
 90
      157
 90
      113
 90
        3
 90
       14
 90
      158
 90
      116
 90
        3
 90
       15
 90
      159
 90
      119
 90
        3
 90
       16
 90
      160
 90
      122
 90
        3
 90
       17
 90
      161
 90
      125
 90
        3
 90
       18
 90
      162
 90
      128
 90
        3
 90
       19
 90
      163
 90
      131
 90
        3
 90
       20
 90
      164
 90
      134
 90
        3
 90
       21
 90
      165
 90
      137
 90
        3
 90
       22
 90
      166
 90
      140
 90
        3
 90
       23
 90
      167
 90
      143
 90
        4
 90
       25
 90
       73
 90
       80
 90
       29
 90
        4
 90
       29
 90
       79
 90
       81
 90
        3
 90
        4
 90
        3
 90
       83
 90
       75
 90
        1
 90
        4
 90
        1
 90
       77
 90
       74
 90
       25
 90
        4
 90
       32
 90
       84
 90
       88
 90
       34
 90
        4
 90
       34
 90
       87
 90
       94
 90
       38
 90
        4
 90
       38
 90
       93
 90
       91
 90
       36
 90
        4
 90
       36
 90
       90
 90
       85
 90
       32
 90
        4
 90
       27
 90
       76
 90
       89
 90
       35
 90
        4
 90
        4
 90
       86
 90
       72
 90
        0
 90
        4
 90
       31
 90
       82
 90
       95
 90
       39
 90
        4
 90
       28
 90
       78
 90
       92
 90
       37
 90
        4
 90
       41
 90
       97
 90
      104
 90
       45
 90
        4
 90
       45
 90
      103
 90
      105
 90
       11
 90
        4
 90
       11
 90
      107
 90
       99
 90
        9
 90
        4
 90
        9
 90
      101
 90
       98
 90
       41
 90
        4
 90
       48
 90
      108
 90
      112
 90
       50
 90
        4
 90
       50
 90
      111
 90
      118
 90
       54
 90
        4
 90
       54
 90
      117
 90
      115
 90
       52
 90
        4
 90
       52
 90
      114
 90
      109
 90
       48
 90
        4
 90
       43
 90
      100
 90
      113
 90
       51
 90
        4
 90
       12
 90
      110
 90
       96
 90
        8
 90
        4
 90
       47
 90
      106
 90
      119
 90
       55
 90
        4
 90
       44
 90
      102
 90
      116
 90
       53
 90
        4
 90
       57
 90
      121
 90
      128
 90
       61
 90
        4
 90
       61
 90
      127
 90
      129
 90
       19
 90
        4
 90
       19
 90
      131
 90
      123
 90
       17
 90
        4
 90
       17
 90
      125
 90
      122
 90
       57
 90
        4
 90
       64
 90
      132
 90
      136
 90
       66
 90
        4
 90
       66
 90
      135
 90
      142
 90
       70
 90
        4
 90
       70
 90
      141
 90
      139
 90
       68
 90
        4
 90
       68
 90
      138
 90
      133
 90
       64
 90
        4
 90
       59
 90
      124
 90
      137
 90
       67
 90
        4
 90
       20
 90
      134
 90
      120
 90
       16
 90
        4
 90
       63
 90
      130
 90
      143
 90
       71
 90
        4
 90
       60
 90
      126
 90
      140
 90
       69
 90
        3
 90
        0
 90
       72
 90
      144
 90
        4
 90
       72
 90
       24
 90
       73
 90
      144
 90
        4
 90
      144
 90
       73
 90
       25
 90
       74
 90
        3
 90
        1
 90
       75
 90
      145
 90
        4
 90
       75
 90
       26
 90
       76
 90
      145
 90
        4
 90
      145
 90
       76
 90
       27
 90
       77
 90
        3
 90
        2
 90
       78
 90
      146
 90
        4
 90
       78
 90
       28
 90
       79
 90
      146
 90
        4
 90
      146
 90
       79
 90
       29
 90
       80
 90
        3
 90
        3
 90
       81
 90
      147
 90
        4
 90
       81
 90
       30
 90
       82
 90
      147
 90
        4
 90
      147
 90
       82
 90
       31
 90
       83
 90
        3
 90
        4
 90
       84
 90
      148
 90
        4
 90
       84
 90
       32
 90
       85
 90
      148
 90
        4
 90
      148
 90
       85
 90
       33
 90
       86
 90
        3
 90
        5
 90
       87
 90
      149
 90
        4
 90
       87
 90
       34
 90
       88
 90
      149
 90
        4
 90
      149
 90
       88
 90
       35
 90
       89
 90
        3
 90
        6
 90
       90
 90
      150
 90
        4
 90
       90
 90
       36
 90
       91
 90
      150
 90
        4
 90
      150
 90
       91
 90
       37
 90
       92
 90
        3
 90
        7
 90
       93
 90
      151
 90
        4
 90
       93
 90
       38
 90
       94
 90
      151
 90
        4
 90
      151
 90
       94
 90
       39
 90
       95
 90
        3
 90
        8
 90
       96
 90
      152
 90
        4
 90
       96
 90
       40
 90
       97
 90
      152
 90
        4
 90
      152
 90
       97
 90
       41
 90
       98
 90
        3
 90
        9
 90
       99
 90
      153
 90
        4
 90
       99
 90
       42
 90
      100
 90
      153
 90
        4
 90
      153
 90
      100
 90
       43
 90
      101
 90
        3
 90
       10
 90
      102
 90
      154
 90
        4
 90
      102
 90
       44
 90
      103
 90
      154
 90
        4
 90
      154
 90
      103
 90
       45
 90
      104
 90
        3
 90
       11
 90
      105
 90
      155
 90
        4
 90
      105
 90
       46
 90
      106
 90
      155
 90
        4
 90
      155
 90
      106
 90
       47
 90
      107
 90
        3
 90
       12
 90
      108
 90
      156
 90
        4
 90
      108
 90
       48
 90
      109
 90
      156
 90
        4
 90
      156
 90
      109
 90
       49
 90
      110
 90
        3
 90
       13
 90
      111
 90
      157
 90
        4
 90
      111
 90
       50
 90
      112
 90
      157
 90
        4
 90
      157
 90
      112
 90
       51
 90
      113
 90
        3
 90
       14
 90
      114
 90
      158
 90
        4
 90
      114
 90
       52
 90
      115
 90
      158
 90
        4
 90
      158
 90
      115
 90
       53
 90
      116
 90
        3
 90
       15
 90
      117
 90
      159
 90
        4
 90
      117
 90
       54
 90
      118
 90
      159
 90
        4
 90
      159
 90
      118
 90
       55
 90
      119
 90
        3
 90
       16
 90
      120
 90
      160
 90
        4
 90
      120
 90
       56
 90
      121
 90
      160
 90
        4
 90
      160
 90
      121
 90
       57
 90
      122
 90
        3
 90
       17
 90
      123
 90
      161
 90
        4
 90
      123
 90
       58
 90
      124
 90
      161
 90
        4
 90
      161
 90
      124
 90
       59
 90
      125
 90
        3
 90
       18
 90
      126
 90
      162
 90
        4
 90
      126
 90
       60
 90
      127
 90
      162
 90
        4
 90
      162
 90
      127
 90
       61
 90
      128
 90
        3
 90
       19
 90
      129
 90
      163
 90
        4
 90
      129
 90
       62
 90
      130
 90
      163
 90
        4
 90
      163
 90
      130
 90
       63
 90
      131
 90
        3
 90
       20
 90
      132
 90
      164
 90
        4
 90
      132
 90
       64
 90
      133
 90
      164
 90
        4
 90
      164
 90
      133
 90
       65
 90
      134
 90
        3
 90
       21
 90
      135
 90
      165
 90
        4
 90
      135
 90
       66
 90
      136
 90
      165
 90
        4
 90
      165
 90
      136
 90
       67
 90
      137
 90
        3
 90
       22
 90
      138
 90
      166
 90
        4
 90
      138
 90
       68
 90
      139
 90
      166
 90
        4
 90
      166
 90
      139
 90
       69
 90
      140
 90
        3
 90
       23
 90
      141
 90
      167
 90
        4
 90
      141
 90
       70
 90
      142
 90
      167
 90
        4
 90
      167
 90
      142
 90
       71
 90
      143
 90
        4
 90
       73
 90
       24
 90
        2
 90
       80
 90
        4
 90
       79
 90
       28
 90
       30
 90
       81
 90
        4
 90
       83
 90
       31
 90
       26
 90
       75
 90
        4
 90
       77
 90
       27
 90
        0
 90
       74
 90
        4
 90
       84
 90
        4
 90
       35
 90
       88
 90
        4
 90
       87
 90
        5
 90
       39
 90
       94
 90
        4
 90
       93
 90
        7
 90
       37
 90
       91
 90
        4
 90
       90
 90
        6
 90
       33
 90
       85
 90
        4
 90
       76
 90
       26
 90
        5
 90
       89
 90
        4
 90
       86
 90
       33
 90
       24
 90
       72
 90
        4
 90
       82
 90
       30
 90
        7
 90
       95
 90
        4
 90
       78
 90
        2
 90
        6
 90
       92
 90
        4
 90
       97
 90
       40
 90
       10
 90
      104
 90
        4
 90
      103
 90
       44
 90
       46
 90
      105
 90
        4
 90
      107
 90
       47
 90
       42
 90
       99
 90
        4
 90
      101
 90
       43
 90
        8
 90
       98
 90
        4
 90
      108
 90
       12
 90
       51
 90
      112
 90
        4
 90
      111
 90
       13
 90
       55
 90
      118
 90
        4
 90
      117
 90
       15
 90
       53
 90
      115
 90
        4
 90
      114
 90
       14
 90
       49
 90
      109
 90
        4
 90
      100
 90
       42
 90
       13
 90
      113
 90
        4
 90
      110
 90
       49
 90
       40
 90
       96
 90
        4
 90
      106
 90
       46
 90
       15
 90
      119
 90
        4
 90
      102
 90
       10
 90
       14
 90
      116
 90
        4
 90
      121
 90
       56
 90
       18
 90
      128
 90
        4
 90
      127
 90
       60
 90
       62
 90
      129
 90
        4
 90
      131
 90
       63
 90
       58
 90
      123
 90
        4
 90
      125
 90
       59
 90
       16
 90
      122
 90
        4
 90
      132
 90
       20
 90
       67
 90
      136
 90
        4
 90
      135
 90
       21
 90
       71
 90
      142
 90
        4
 90
      141
 90
       23
 90
       69
 90
      139
 90
        4
 90
      138
 90
       22
 90
       65
 90
      133
 90
        4
 90
      124
 90
       58
 90
       21
 90
      137
 90
        4
 90
      134
 90
       65
 90
       56
 90
      120
 90
        4
 90
      130
 90
       62
 90
       23
 90
      143
 90
        4
 90
      126
 90
       18
 90
       22
 90
      140
 94
      348
 90
       25
 90
       29
 90
        3
 90
       29
 90
        1
 90
        3
 90
        1
 90
       25
 90
       32
 90
       34
 90
       34
 90
       38
 90
       36
 90
       38
 90
       32
 90
       36
 90
        0
 90
       27
 90
       27
 90
       35
 90
        4
 90
       35
 90
        0
 90
        4
 90
       26
 90
       31
 90
       31
 90
       39
 90
        5
 90
       39
 90
        5
 90
       26
 90
       28
 90
       30
 90
       28
 90
       37
 90
        7
 90
       37
 90
        7
 90
       30
 90
        2
 90
       24
 90
       24
 90
       33
 90
        6
 90
       33
 90
        2
 90
        6
 90
       41
 90
       45
 90
       11
 90
       45
 90
        9
 90
       11
 90
        9
 90
       41
 90
       48
 90
       50
 90
       50
 90
       54
 90
       52
 90
       54
 90
       48
 90
       52
 90
        8
 90
       43
 90
       43
 90
       51
 90
       12
 90
       51
 90
        8
 90
       12
 90
       42
 90
       47
 90
       47
 90
       55
 90
       13
 90
       55
 90
       13
 90
       42
 90
       44
 90
       46
 90
       44
 90
       53
 90
       15
 90
       53
 90
       15
 90
       46
 90
       10
 90
       40
 90
       40
 90
       49
 90
       14
 90
       49
 90
       10
 90
       14
 90
       57
 90
       61
 90
       19
 90
       61
 90
       17
 90
       19
 90
       17
 90
       57
 90
       64
 90
       66
 90
       66
 90
       70
 90
       68
 90
       70
 90
       64
 90
       68
 90
       16
 90
       59
 90
       59
 90
       67
 90
       20
 90
       67
 90
       16
 90
       20
 90
       58
 90
       63
 90
       63
 90
       71
 90
       21
 90
       71
 90
       21
 90
       58
 90
       60
 90
       62
 90
       60
 90
       69
 90
       23
 90
       69
 90
       23
 90
       62
 90
       18
 90
       56
 90
       56
 90
       65
 90
       22
 90
       65
 90
       18
 90
       22
 90
        0
 90
      144
 90
       74
 90
      144
 90
        0
 90
       74
 90
        1
 90
      145
 90
       77
 90
      145
 90
        1
 90
       77
 90
        2
 90
      146
 90
       80
 90
      146
 90
        2
 90
       80
 90
        3
 90
      147
 90
       83
 90
      147
 90
        3
 90
       83
 90
        4
 90
      148
 90
       86
 90
      148
 90
        4
 90
       86
 90
        5
 90
      149
 90
       89
 90
      149
 90
        5
 90
       89
 90
        6
 90
      150
 90
       92
 90
      150
 90
        6
 90
       92
 90
        7
 90
      151
 90
       95
 90
      151
 90
        7
 90
       95
 90
        8
 90
      152
 90
       98
 90
      152
 90
        8
 90
       98
 90
        9
 90
      153
 90
      101
 90
      153
 90
        9
 90
      101
 90
       10
 90
      154
 90
      104
 90
      154
 90
       10
 90
      104
 90
       11
 90
      155
 90
      107
 90
      155
 90
       11
 90
      107
 90
       12
 90
      156
 90
      110
 90
      156
 90
       12
 90
      110
 90
       13
 90
      157
 90
      113
 90
      157
 90
       13
 90
      113
 90
       14
 90
      158
 90
      116
 90
      158
 90
       14
 90
      116
 90
       15
 90
      159
 90
      119
 90
      159
 90
       15
 90
      119
 90
       16
 90
      160
 90
      122
 90
      160
 90
       16
 90
      122
 90
       17
 90
      161
 90
      125
 90
      161
 90
       17
 90
      125
 90
       18
 90
      162
 90
      128
 90
      162
 90
       18
 90
      128
 90
       19
 90
      163
 90
      131
 90
      163
 90
       19
 90
      131
 90
       20
 90
      164
 90
      134
 90
      164
 90
       20
 90
      134
 90
       21
 90
      165
 90
      137
 90
      165
 90
       21
 90
      137
 90
       22
 90
      166
 90
      140
 90
      166
 90
       22
 90
      140
 90
       23
 90
      167
 90
      143
 90
      167
 90
       23
 90
      143
 90
       25
 90
       73
 90
       73
 90
       80
 90
       29
 90
       80
 90
       29
 90
       79
 90
       79
 90
       81
 90
        3
 90
       81
 90
       75
 90
       83
 90
        1
 90
       75
 90
       74
 90
       77
 90
       25
 90
       74
 90
       32
 90
       84
 90
       84
 90
       88
 90
       34
 90
       88
 90
       34
 90
       87
 90
       87
 90
       94
 90
       38
 90
       94
 90
       38
 90
       93
 90
       91
 90
       93
 90
       36
 90
       91
 90
       36
 90
       90
 90
       85
 90
       90
 90
       32
 90
       85
 90
       27
 90
       76
 90
       76
 90
       89
 90
       35
 90
       89
 90
       72
 90
       86
 90
        0
 90
       72
 90
       31
 90
       82
 90
       82
 90
       95
 90
       39
 90
       95
 90
       28
 90
       78
 90
       78
 90
       92
 90
       37
 90
       92
 90
       41
 90
       97
 90
       97
 90
      104
 90
       45
 90
      104
 90
       45
 90
      103
 90
      103
 90
      105
 90
       11
 90
      105
 90
       99
 90
      107
 90
        9
 90
       99
 90
       98
 90
      101
 90
       41
 90
       98
 90
       48
 90
      108
 90
      108
 90
      112
 90
       50
 90
      112
 90
       50
 90
      111
 90
      111
 90
      118
 90
       54
 90
      118
 90
       54
 90
      117
 90
      115
 90
      117
 90
       52
 90
      115
 90
       52
 90
      114
 90
      109
 90
      114
 90
       48
 90
      109
 90
       43
 90
      100
 90
      100
 90
      113
 90
       51
 90
      113
 90
       96
 90
      110
 90
        8
 90
       96
 90
       47
 90
      106
 90
      106
 90
      119
 90
       55
 90
      119
 90
       44
 90
      102
 90
      102
 90
      116
 90
       53
 90
      116
 90
       57
 90
      121
 90
      121
 90
      128
 90
       61
 90
      128
 90
       61
 90
      127
 90
      127
 90
      129
 90
       19
 90
      129
 90
      123
 90
      131
 90
       17
 90
      123
 90
      122
 90
      125
 90
       57
 90
      122
 90
       64
 90
      132
 90
      132
 90
      136
 90
       66
 90
      136
 90
       66
 90
      135
 90
      135
 90
      142
 90
       70
 90
      142
 90
       70
 90
      141
 90
      139
 90
      141
 90
       68
 90
      139
 90
       68
 90
      138
 90
      133
 90
      138
 90
       64
 90
      133
 90
       59
 90
      124
 90
      124
 90
      137
 90
       67
 90
      137
 90
      120
 90
      134
 90
       16
 90
      120
 90
       63
 90
      130
 90
      130
 90
      143
 90
       71
 90
      143
 90
       60
 90
      126
 90
      126
 90
      140
 90
       69
 90
      140
 90
       72
 90
      144
 90
       24
 90
       72
 90
       24
 90
       73
 90
       73
 90
      144
 90
       75
 90
      145
 90
       26
 90
       75
 90
       26
 90
       76
 90
       76
 90
      145
 90
       27
 90
       77
 90
        2
 90
       78
 90
       78
 90
      146
 90
       28
 90
       79
 90
       79
 90
      146
 90
       81
 90
      147
 90
       30
 90
       81
 90
       30
 90
       82
 90
       82
 90
      147
 90
       31
 90
       83
 90
        4
 90
       84
 90
       84
 90
      148
 90
       85
 90
      148
 90
       33
 90
       85
 90
       33
 90
       86
 90
        5
 90
       87
 90
       87
 90
      149
 90
       88
 90
      149
 90
       35
 90
       88
 90
        6
 90
       90
 90
       90
 90
      150
 90
       91
 90
      150
 90
       37
 90
       91
 90
        7
 90
       93
 90
       93
 90
      151
 90
       94
 90
      151
 90
       39
 90
       94
 90
       96
 90
      152
 90
       40
 90
       96
 90
       40
 90
       97
 90
       97
 90
      152
 90
       99
 90
      153
 90
       42
 90
       99
 90
       42
 90
      100
 90
      100
 90
      153
 90
       43
 90
      101
 90
       10
 90
      102
 90
      102
 90
      154
 90
       44
 90
      103
 90
      103
 90
      154
 90
      105
 90
      155
 90
       46
 90
      105
 90
       46
 90
      106
 90
      106
 90
      155
 90
       47
 90
      107
 90
       12
 90
      108
 90
      108
 90
      156
 90
      109
 90
      156
 90
       49
 90
      109
 90
       49
 90
      110
 90
       13
 90
      111
 90
      111
 90
      157
 90
      112
 90
      157
 90
       51
 90
      112
 90
       14
 90
      114
 90
      114
 90
      158
 90
      115
 90
      158
 90
       53
 90
      115
 90
       15
 90
      117
 90
      117
 90
      159
 90
      118
 90
      159
 90
       55
 90
      118
 90
      120
 90
      160
 90
       56
 90
      120
 90
       56
 90
      121
 90
      121
 90
      160
 90
      123
 90
      161
 90
       58
 90
      123
 90
       58
 90
      124
 90
      124
 90
      161
 90
       59
 90
      125
 90
       18
 90
      126
 90
      126
 90
      162
 90
       60
 90
      127
 90
      127
 90
      162
 90
      129
 90
      163
 90
       62
 90
      129
 90
       62
 90
      130
 90
      130
 90
      163
 90
       63
 90
      131
 90
       20
 90
      132
 90
      132
 90
      164
 90
      133
 90
      164
 90
       65
 90
      133
 90
       65
 90
      134
 90
       21
 90
      135
 90
      135
 90
      165
 90
      136
 90
      165
 90
       67
 90
      136
 90
       22
 90
      138
 90
      138
 90
      166
 90
      139
 90
      166
 90
       69
 90
      139
 90
       23
 90
      141
 90
      141
 90
      167
 90
      142
 90
      167
 90
       71
 90
      142
 95
      348
140
0.0
140
0.0
140
0.0
140
0.0
140
0.0
140
0.0
140
0.0
140
0.0
140
0.0
140
0.0
140
0.0
140
0.0
140
0.0
140
0.0
140
0.0
140
0.0
140
0.0
140
0.0
140
0.0
140
0.0
140
0.0
140
0.0
140
0.0
140
0.0
140
0.0
140
0.0
140
0.0
140
0.0
140
0.0
140
0.0
140
0.0
140
0.0
140
0.0
140
0.0
140
0.0
140
0.0
140
0.0
140
0.0
140
0.0
140
0.0
140
0.0
140
0.0
140
0.0
140
0.0
140
0.0
140
0.0
140
0.0
140
0.0
140
0.0
140
0.0
140
0.0
140
0.0
140
0.0
140
0.0
140
0.0
140
0.0
140
0.0
140
0.0
140
0.0
140
0.0
140
0.0
140
0.0
140
0.0
140
0.0
140
0.0
140
0.0
140
0.0
140
0.0
140
0.0
140
0.0
140
0.0
140
0.0
140
0.0
140
0.0
140
0.0
140
0.0
140
0.0
140
0.0
140
0.0
140
0.0
140
0.0
140
0.0
140
0.0
140
0.0
140
0.0
140
0.0
140
0.0
140
0.0
140
0.0
140
0.0
140
0.0
140
0.0
140
0.0
140
0.0
140
0.0
140
0.0
140
0.0
140
0.0
140
0.0
140
0.0
140
0.0
140
0.0
140
0.0
140
0.0
140
0.0
140
0.0
140
0.0
140
0.0
140
0.0
140
0.0
140
0.0
140
0.0
140
0.0
140
0.0
140
0.0
140
0.0
140
0.0
140
0.0
140
0.0
140
0.0
140
0.0
140
0.0
140
0.0
140
0.0
140
0.0
140
0.0
140
0.0
140
0.0
140
0.0
140
0.0
140
0.0
140
0.0
140
0.0
140
0.0
140
0.0
140
0.0
140
0.0
140
0.0
140
0.0
140
0.0
140
0.0
140
0.0
140
0.0
140
0.0
140
0.0
140
0.0
140
0.0
140
0.0
140
0.0
140
0.0
140
0.0
140
0.0
140
0.0
140
0.0
140
0.0
140
0.0
140
0.0
140
0.0
140
0.0
140
0.0
140
0.0
140
0.0
140
0.0
140
0.0
140
0.0
140
0.0
140
0.0
140
0.0
140
0.0
140
0.0
140
0.0
140
0.0
140
0.0
140
0.0
140
0.0
140
0.0
140
0.0
140
0.0
140
0.0
140
0.0
140
0.0
140
0.0
140
0.0
140
0.0
140
0.0
140
0.0
140
0.0
140
0.0
140
0.0
140
0.0
140
0.0
140
0.0
140
0.0
140
0.0
140
0.0
140
0.0
140
0.0
140
0.0
140
0.0
140
0.0
140
0.0
140
0.0
140
0.0
140
0.0
140
0.0
140
0.0
140
0.0
140
0.0
140
0.0
140
0.0
140
0.0
140
0.0
140
0.0
140
0.0
140
0.0
140
0.0
140
0.0
140
0.0
140
0.0
140
0.0
140
0.0
140
0.0
140
0.0
140
0.0
140
0.0
140
0.0
140
0.0
140
0.0
140
0.0
140
0.0
140
0.0
140
0.0
140
0.0
140
0.0
140
0.0
140
0.0
140
0.0
140
0.0
140
0.0
140
0.0
140
0.0
140
0.0
140
0.0
140
0.0
140
0.0
140
0.0
140
0.0
140
0.0
140
0.0
140
0.0
140
0.0
140
0.0
140
0.0
140
0.0
140
0.0
140
0.0
140
0.0
140
0.0
140
0.0
140
0.0
140
0.0
140
0.0
140
0.0
140
0.0
140
0.0
140
0.0
140
0.0
140
0.0
140
0.0
140
0.0
140
0.0
140
0.0
140
0.0
140
0.0
140
0.0
140
0.0
140
0.0
140
0.0
140
0.0
140
0.0
140
0.0
140
0.0
140
0.0
140
0.0
140
0.0
140
0.0
140
0.0
140
0.0
140
0.0
140
0.0
140
0.0
140
0.0
140
0.0
140
0.0
140
0.0
140
0.0
140
0.0
140
0.0
140
0.0
140
0.0
140
0.0
140
0.0
140
0.0
140
0.0
140
0.0
140
0.0
140
0.0
140
0.0
140
0.0
140
0.0
140
0.0
140
0.0
140
0.0
140
0.0
140
0.0
140
0.0
140
0.0
140
0.0
140
0.0
140
0.0
140
0.0
140
0.0
140
0.0
140
0.0
140
0.0
140
0.0
140
0.0
140
0.0
140
0.0
140
0.0
140
0.0
140
0.0
140
0.0
140
0.0
140
0.0
140
0.0
140
0.0
140
0.0
140
0.0
140
0.0
140
0.0
140
0.0
140
0.0
140
0.0
140
0.0
140
0.0
140
0.0
140
0.0
 90
        0
  0
MESH
  5
FA
330
1F
100
AcDbEntity
  8
0
 62
    76
420
  4032262
160
              8360
310
A8200000E80000000C00000013000000020000003C0000000600000002000000000000E0D499AB40000000C016795C4000000000AF091AC0000000E0D499AB4000000040DBD75C4000000000AF091AC00C000000130000000A0000003C0000000600000002000000000000E0D499AB4000000040DBD75C4000000000AF091A
310
C000000020B489AC4000000040DBD75C4000000000AF091AC00C00000013000000120000003C000000060000000200000000000020B489AC4000000040DBD75C4000000000AF091AC000000020B489AC40000000C016795C4000000000AF091AC00C000000130000001A0000003C0000000600000002000000000000E0D499
310
AB40000000C016795C4000000000AF091AC000000020B489AC40000000C016795C4000000000AF091AC00C00000013000000220000003C0000000600000002000000000000E0D499AB40000000C016795C4000000080A4813B4000000020B489AC40000000C016795C4000000080A4813B400C000000130000002A0000003C
310
000000060000000200000000000020B489AC40000000C016795C4000000080A4813B4000000020B489AC4000000040DBD75C4000000080A4813B400C00000013000000320000003C000000060000000200000000000020B489AC4000000040DBD75C4000000080A4813B40000000E0D499AB4000000040DBD75C4000000080
310
A4813B400C000000130000003A0000003C0000000600000002000000000000E0D499AB40000000C016795C4000000080A4813B40000000E0D499AB4000000040DBD75C4000000080A4813B400C00000013000000420000003C0000000600000002000000000000E0D499AB40000000C03F755C40000000803ECC19C0000000
310
20B489AC40000000C03F755C40000000803ECC19C00C000000130000004A0000003C000000060000000200000000000020B489AC40000000C03F755C40000000803ECC19C000000020B489AC40000000C03F755C400000004048723B400C00000013000000520000003C000000060000000200000000000020B489AC400000
310
00C03F755C400000004048723B40000000E0D499AB40000000C03F755C400000004048723B400C000000130000005A0000003C0000000600000002000000000000E0D499AB40000000C03F755C40000000803ECC19C0000000E0D499AB40000000C03F755C400000004048723B400C00000013000000620000003C00000006
310
00000002000000000000E0D289AC40000000C016795C40000000803ECC19C0000000E0D289AC4000000040DBD75C40000000803ECC19C00C000000130000006A0000003C0000000600000002000000000000E0D289AC4000000040DBD75C40000000803ECC19C0000000E0D289AC4000000040DBD75C400000004048723B40
310
0C00000013000000720000003C0000000600000002000000000000E0D289AC4000000040DBD75C400000004048723B40000000E0D289AC40000000C016795C400000004048723B400C000000130000007A0000003C0000000600000002000000000000E0D289AC40000000C016795C40000000803ECC19C0000000E0D289AC
310
40000000C016795C400000004048723B400C00000013000000820000003C000000060000000200000000000020B489AC4000000040B2DB5C40000000803ECC19C0000000E0D499AB4000000040B2DB5C40000000803ECC19C00C000000130000008A0000003C0000000600000002000000000000E0D499AB4000000040B2DB
310
5C40000000803ECC19C0000000E0D499AB4000000040B2DB5C400000004048723B400C00000013000000920000003C0000000600000002000000000000E0D499AB4000000040B2DB5C400000004048723B4000000020B489AC4000000040B2DB5C400000004048723B400C000000130000009A0000003C0000000600000002
310
00000000000020B489AC4000000040B2DB5C40000000803ECC19C000000020B489AC4000000040B2DB5C400000004048723B400C00000013000000A20000003C000000060000000200000000000020B699AB4000000040DBD75C40000000803ECC19C000000020B699AB40000000C016795C40000000803ECC19C00C000000
310
13000000AA0000003C000000060000000200000000000020B699AB40000000C016795C40000000803ECC19C000000020B699AB40000000C016795C400000004048723B400C00000013000000B20000003C000000060000000200000000000020B699AB40000000C016795C400000004048723B4000000020B699AB40000000
310
40DBD75C400000004048723B400C00000013000000BA0000003C000000060000000200000000000020B699AB4000000040DBD75C40000000803ECC19C000000020B699AB4000000040DBD75C400000004048723B400C00000013000000C20000003C0000000600000002000000000000E0D499AB40000000C03F755C400000
310
00803ECC19C0000000A0C399AB400000008035765C4000000000CEEE19C00C00000013000000CA0000003C0000000600000002000000000000A0C399AB400000008035765C4000000000CEEE19C0000000E0D499AB400000008035765C400000000053FA19C00C00000013000000D20000003C000000060000000200000000
310
0000E0D499AB40000000C03F755C40000000803ECC19C0000000E0D499AB400000008035765C400000000053FA19C00C00000013000000DA0000003C000000060000000200000000000020B489AC40000000C016795C4000000000AF091AC000000060C589AC40000000C0ED765C400000000053FA19C00C00000013000000
310
E20000003C000000060000000200000000000060C589AC40000000C0ED765C400000000053FA19C000000020B489AC400000008035765C400000000053FA19C00C00000013000000EA0000003C000000060000000200000000000020B489AC40000000C016795C4000000000AF091AC000000020B489AC400000008035765C
310
400000000053FA19C00C00000013000000F20000003C000000060000000200000000000020B699AB4000000040DBD75C40000000803ECC19C0000000C0BD99AB400000002004DA5C4000000000CEEE19C00C00000013000000FA0000003C0000000600000002000000000000C0BD99AB400000002004DA5C4000000000CEEE
310
19C0000000C0BD99AB4000000040DBD75C400000000053FA19C00C00000013000000020100003C000000060000000200000000000020B699AB4000000040DBD75C40000000803ECC19C0000000C0BD99AB4000000040DBD75C400000000053FA19C00C000000130000000A0100003C000000060000000200000000000020B4
310
89AC4000000040DBD75C4000000000AF091AC000000060C589AC40000000E004DA5C400000000053FA19C00C00000013000000120100003C000000060000000200000000000060C589AC40000000E004DA5C400000000053FA19C000000040CB89AC4000000040DBD75C400000000053FA19C00C000000130000001A010000
310
3C000000060000000200000000000020B489AC4000000040DBD75C4000000000AF091AC000000040CB89AC4000000040DBD75C400000000053FA19C00C00000013000000220100003C0000000600000002000000000000E0D499AB40000000C03F755C400000004048723B40000000A0C399AB400000008035765C40000000
310
C0EB7A3B400C000000130000002A0100003C0000000600000002000000000000A0C399AB400000008035765C40000000C0EB7A3B40000000C0BD99AB400000008035765C400000004048723B400C00000013000000320100003C0000000600000002000000000000E0D499AB40000000C03F755C400000004048723B400000
310
00C0BD99AB400000008035765C400000004048723B400C000000130000003A0100003C0000000600000002000000000000E0D289AC40000000C016795C400000004048723B4000000040CB89AC40000000C0ED765C4000000000EC7A3B400C00000013000000420100003C000000060000000200000000000040CB89AC4000
310
0000C0ED765C4000000000EC7A3B4000000040CB89AC400000008035765C400000004048723B400C000000130000004A0100003C0000000600000002000000000000E0D289AC40000000C016795C400000004048723B4000000040CB89AC400000008035765C400000004048723B400C00000013000000520100003C000000
310
060000000200000000000020B699AB4000000040DBD75C400000004048723B40000000C0BD99AB400000004004DA5C4000000000EC7A3B400C000000130000005A0100003C0000000600000002000000000000C0BD99AB400000004004DA5C4000000000EC7A3B40000000C0BD99AB4000000080BCDA5C400000004048723B
310
400C00000013000000620100003C000000060000000200000000000020B699AB4000000040DBD75C400000004048723B40000000C0BD99AB4000000080BCDA5C400000004048723B400C000000130000006A0100003C000000060000000200000000000020B489AC4000000040B2DB5C400000004048723B4000000060C589
310
AC4000000080BCDA5C40000000C0EB7A3B400C00000013000000720100003C000000060000000200000000000060C589AC4000000080BCDA5C40000000C0EB7A3B4000000040CB89AC4000000080BCDA5C400000004048723B400C000000130000007A0100003C000000060000000200000000000020B489AC4000000040B2
310
DB5C400000004048723B4000000040CB89AC4000000080BCDA5C400000004048723B400C00000013000000820100003C0000000600000002000000000000E0D499AB40000000C016795C4000000000AF091AC0000000C0BD99AB40000000C016795C400000000053FA19C00C000000130000008A0100003C00000006000000
310
02000000000000C0BD99AB4000000040DBD75C400000000053FA19C0000000C0BD99AB40000000C016795C400000000053FA19C00C00000013000000920100003C0000000600000002000000000000E0D499AB4000000040DBD75C4000000000AF091AC0000000C0BD99AB4000000040DBD75C400000000053FA19C00C0000
310
00130000009A0100003C0000000600000002000000000000E0D499AB4000000040DBD75C4000000000AF091AC0000000E0D499AB4000000060BCDA5C400000000053FA19C00C00000013000000A20100003C0000000600000002000000000000E0D499AB4000000060BCDA5C400000000053FA19C000000020B489AC400000
310
0080BCDA5C400000000053FA19C00C00000013000000AA0100003C000000060000000200000000000020B489AC4000000040DBD75C4000000000AF091AC000000020B489AC4000000080BCDA5C400000000053FA19C00C00000013000000B20100003C000000060000000200000000000040CB89AC4000000040DBD75C4000
310
00000053FA19C000000040CB89AC40000000C016795C400000000053FA19C00C00000013000000BA0100003C000000060000000200000000000020B489AC40000000C016795C4000000000AF091AC000000040CB89AC40000000C016795C400000000053FA19C00C00000013000000C20100003C0000000600000002000000
310
000000E0D499AB400000008035765C400000000053FA19C000000020B489AC400000008035765C400000000053FA19C00C00000013000000CA0100003C0000000600000002000000000000E0D499AB40000000C016795C4000000000AF091AC0000000E0D499AB400000008035765C400000000053FA19C00C000000130000
310
00D20100003C0000000600000002000000000000E0D499AB40000000C016795C4000000080A4813B40000000E0D499AB400000008035765C4000000080CD7D3B400C00000013000000DA0100003C0000000600000002000000000000E0D499AB400000008035765C4000000080CD7D3B4000000020B489AC40000000803576
310
5C4000000040CD7D3B400C00000013000000E20100003C000000060000000200000000000020B489AC40000000C016795C4000000080A4813B4000000020B489AC400000008035765C4000000040CD7D3B400C00000013000000EA0100003C000000060000000200000000000020B489AC40000000C016795C4000000080A4
310
813B4000000040CB89AC40000000C016795C4000000080CD7D3B400C00000013000000F20100003C000000060000000200000000000040CB89AC40000000C016795C4000000080CD7D3B4000000040CB89AC4000000040DBD75C4000000000CD7D3B400C00000013000000FA0100003C000000060000000200000000000020
310
B489AC4000000040DBD75C4000000080A4813B4000000040CB89AC4000000040DBD75C4000000000CD7D3B400C00000013000000020200003C000000060000000200000000000020B489AC4000000040DBD75C4000000080A4813B4000000020B489AC4000000080BCDA5C4000000080CD7D3B400C000000130000000A0200
310
003C000000060000000200000000000020B489AC4000000080BCDA5C4000000080CD7D3B40000000E0D499AB4000000080BCDA5C4000000040CD7D3B400C00000013000000120200003C0000000600000002000000000000E0D499AB4000000040DBD75C4000000080A4813B40000000E0D499AB4000000080BCDA5C400000
310
0040CD7D3B400C000000130000001A0200003C0000000600000002000000000000E0D499AB4000000040DBD75C4000000080A4813B40000000C0BD99AB4000000040DBD75C4000000080CD7D3B400C00000013000000220200003C0000000600000002000000000000C0BD99AB4000000040DBD75C4000000080CD7D3B4000
310
0000C0BD99AB40000000C016795C4000000000CD7D3B400C000000130000002A0200003C0000000600000002000000000000E0D499AB40000000C016795C4000000080A4813B40000000C0BD99AB40000000C016795C4000000000CD7D3B400C00000013000000320200003C000000060000000200000000000020B489AC40
310
000000C03F755C40000000803ECC19C000000040CB89AC400000008035765C40000000803ECC19C00C000000130000003A0200003C000000060000000200000000000040CB89AC400000008035765C400000004048723B4000000040CB89AC400000008035765C40000000803ECC19C00C00000013000000420200003C0000
310
00060000000200000000000020B489AC40000000C03F755C400000004048723B4000000040CB89AC400000008035765C400000004048723B400C000000130000004A0200003C0000000600000002000000000000C0BD99AB400000008035765C400000004048723B40000000C0BD99AB400000008035765C40000000803ECC
310
19C00C00000013000000520200003C0000000600000002000000000000E0D499AB40000000C03F755C40000000803ECC19C0000000C0BD99AB400000008035765C40000000803ECC19C00C000000130000005A0200003C0000000600000002000000000000E0D289AC4000000040DBD75C40000000803ECC19C000000040CB
310
89AC4000000060BDDA5C40000000803ECC19C00C00000013000000620200003C000000060000000200000000000040CB89AC4000000080BCDA5C400000004048723B4000000040CB89AC4000000060BDDA5C40000000803ECC19C00C000000130000006A0200003C0000000600000002000000000000E0D289AC4000000040
310
DBD75C400000004048723B4000000040CB89AC4000000080BCDA5C400000004048723B400C00000013000000720200003C0000000600000002000000000000E0D499AB4000000040B2DB5C40000000803ECC19C0000000C0BD99AB4000000080BCDA5C40000000803ECC19C00C000000130000007A0200003C000000060000
310
0002000000000000C0BD99AB4000000080BCDA5C400000004048723B40000000C0BD99AB4000000080BCDA5C40000000803ECC19C00C00000013000000820200003C0000000600000002000000000000E0D499AB4000000040B2DB5C400000004048723B40000000C0BD99AB4000000080BCDA5C400000004048723B400C00
310
0000130000008A0200003C0000000600000002000000000000A0C399AB400000008035765C4000000000CEEE19C0000000C0BD99AB400000008035765C40000000803ECC19C00C00000013000000920200003C000000060000000200000000000020B699AB40000000C016795C40000000803ECC19C0000000C0BD99AB4000
310
00008035765C40000000803ECC19C00C000000130000009A0200003C000000060000000200000000000020B699AB40000000C016795C40000000803ECC19C0000000C0BD99AB40000000C016795C400000000053FA19C00C00000013000000A20200003C0000000600000002000000000000A0C399AB400000008035765C40
310
00000000CEEE19C0000000C0BD99AB40000000C016795C400000000053FA19C00C00000013000000AA0200003C000000060000000200000000000060C589AC40000000C0ED765C400000000053FA19C000000040CB89AC40000000C016795C400000000053FA19C00C00000013000000B20200003C00000006000000020000
310
00000000E0D289AC40000000C016795C40000000803ECC19C000000040CB89AC40000000C016795C400000000053FA19C00C00000013000000BA0200003C0000000600000002000000000000E0D289AC40000000C016795C40000000803ECC19C000000040CB89AC400000008035765C40000000803ECC19C00C0000001300
310
0000C20200003C000000060000000200000000000060C589AC40000000C0ED765C400000000053FA19C000000040CB89AC400000008035765C40000000803ECC19C00C00000013000000CA0200003C000000060000000200000000000020B489AC40000000C03F755C40000000803ECC19C000000020B489AC400000008035
310
765C400000000053FA19C00C00000013000000D20200003C000000060000000200000000000020B699AB4000000040DBD75C40000000803ECC19C0000000C0BD99AB4000000080BCDA5C40000000803ECC19C00C00000013000000DA0200003C0000000600000002000000000000C0BD99AB400000002004DA5C4000000000
310
CEEE19C0000000C0BD99AB4000000080BCDA5C40000000803ECC19C00C00000013000000E20200003C0000000600000002000000000000E0D499AB4000000040B2DB5C40000000803ECC19C0000000E0D499AB4000000060BCDA5C400000000053FA19C00C00000013000000EA0200003C0000000600000002000000000000
310
C0BD99AB400000002004DA5C4000000000CEEE19C0000000E0D499AB4000000060BCDA5C400000000053FA19C00C00000013000000F20200003C000000060000000200000000000060C589AC40000000E004DA5C400000000053FA19C000000020B489AC4000000080BCDA5C400000000053FA19C00C00000013000000FA02
310
00003C000000060000000200000000000020B489AC4000000040B2DB5C40000000803ECC19C000000020B489AC4000000080BCDA5C400000000053FA19C00C00000013000000020300003C000000060000000200000000000020B489AC4000000040B2DB5C40000000803ECC19C000000040CB89AC4000000060BDDA5C4000
310
0000803ECC19C00C000000130000000A0300003C000000060000000200000000000060C589AC40000000E004DA5C400000000053FA19C000000040CB89AC4000000060BDDA5C40000000803ECC19C00C00000013000000120300003C0000000600000002000000000000E0D289AC4000000040DBD75C40000000803ECC19C0
310
00000040CB89AC4000000040DBD75C400000000053FA19C00C000000130000001A0300003C0000000600000002000000000000E0D499AB40000000C03F755C400000004048723B40000000E0D499AB400000008035765C4000000080CD7D3B400C00000013000000220300003C0000000600000002000000000000A0C399AB
310
400000008035765C40000000C0EB7A3B40000000E0D499AB400000008035765C4000000080CD7D3B400C000000130000002A0300003C0000000600000002000000000000A0C399AB400000008035765C40000000C0EB7A3B40000000C0BD99AB40000000C016795C4000000000CD7D3B400C00000013000000320300003C00
310
0000060000000200000000000020B699AB40000000C016795C400000004048723B40000000C0BD99AB40000000C016795C4000000000CD7D3B400C000000130000003A0300003C000000060000000200000000000020B699AB40000000C016795C400000004048723B40000000C0BD99AB400000008035765C400000004048
310
723B400C00000013000000420300003C0000000600000002000000000000E0D289AC40000000C016795C400000004048723B4000000040CB89AC40000000C016795C4000000080CD7D3B400C000000130000004A0300003C000000060000000200000000000040CB89AC40000000C0ED765C4000000000EC7A3B4000000040
310
CB89AC40000000C016795C4000000080CD7D3B400C00000013000000520300003C000000060000000200000000000040CB89AC40000000C0ED765C4000000000EC7A3B4000000020B489AC400000008035765C4000000040CD7D3B400C000000130000005A0300003C000000060000000200000000000020B489AC40000000
310
C03F755C400000004048723B4000000020B489AC400000008035765C4000000040CD7D3B400C00000013000000620300003C000000060000000200000000000020B699AB4000000040DBD75C400000004048723B40000000C0BD99AB4000000040DBD75C4000000080CD7D3B400C000000130000006A0300003C0000000600
310
000002000000000000C0BD99AB400000004004DA5C4000000000EC7A3B40000000C0BD99AB4000000040DBD75C4000000080CD7D3B400C00000013000000720300003C0000000600000002000000000000C0BD99AB400000004004DA5C4000000000EC7A3B40000000E0D499AB4000000080BCDA5C4000000040CD7D3B400C
310
000000130000007A0300003C0000000600000002000000000000E0D499AB4000000040B2DB5C400000004048723B40000000E0D499AB4000000080BCDA5C4000000040CD7D3B400C00000013000000820300003C000000060000000200000000000020B489AC4000000040B2DB5C400000004048723B4000000020B489AC40
310
00000080BCDA5C4000000080CD7D3B400C000000130000008A0300003C000000060000000200000000000060C589AC4000000080BCDA5C40000000C0EB7A3B4000000020B489AC4000000080BCDA5C4000000080CD7D3B400C00000013000000920300003C000000060000000200000000000060C589AC4000000080BCDA5C
310
40000000C0EB7A3B4000000040CB89AC4000000040DBD75C4000000000CD7D3B400C000000130000009A0300003C0000000600000002000000000000E0D289AC4000000040DBD75C400000004048723B4000000040CB89AC4000000040DBD75C4000000000CD7D3B40
100
AcDbSubDMesh
 71
     2
 72
     0
 91
        0
 92
       56
 10
3532.915771484375
 20
113.8920135498047
 30
-6.509456634521484
 10
3532.915771484375
 20
115.3727569580078
 30
-6.509456634521484
 10
3652.851806640625
 20
115.3727569580078
 30
-6.509456634521484
 10
3652.851806640625
 20
113.8920135498047
 30
-6.509456634521484
 10
3532.915771484375
 20
113.8920135498047
 30
27.50641632080078
 10
3652.851806640625
 20
113.8920135498047
 30
27.50641632080078
 10
3652.851806640625
 20
115.3727569580078
 30
27.50641632080078
 10
3532.915771484375
 20
115.3727569580078
 30
27.50641632080078
 10
3532.915771484375
 20
113.8320159912109
 30
-6.449457168579101
 10
3652.851806640625
 20
113.8320159912109
 30
-6.449457168579101
 10
3652.851806640625
 20
113.8320159912109
 30
27.44641494750977
 10
3532.915771484375
 20
113.8320159912109
 30
27.44641494750977
 10
3652.911865234375
 20
113.8920135498047
 30
-6.449457168579101
 10
3652.911865234375
 20
115.3727569580078
 30
-6.449457168579101
 10
3652.911865234375
 20
115.3727569580078
 30
27.44641494750977
 10
3652.911865234375
 20
113.8920135498047
 30
27.44641494750977
 10
3652.851806640625
 20
115.4327545166015
 30
-6.449457168579101
 10
3532.915771484375
 20
115.4327545166015
 30
-6.449457168579101
 10
3532.915771484375
 20
115.4327545166015
 30
27.44641494750977
 10
3652.851806640625
 20
115.4327545166015
 30
27.44641494750977
 10
3532.855712890625
 20
115.3727569580078
 30
-6.449457168579101
 10
3532.855712890625
 20
113.8920135498047
 30
-6.449457168579101
 10
3532.855712890625
 20
113.8920135498047
 30
27.44641494750977
 10
3532.855712890625
 20
115.3727569580078
 30
27.44641494750977
 10
3532.882080078125
 20
113.8470153808593
 30
-6.483207702636718
 10
3532.915771484375
 20
113.8470153808593
 30
-6.494457244873046
 10
3652.885498046875
 20
113.8582611083984
 30
-6.494457244873046
 10
3652.851806640625
 20
113.8470153808593
 30
-6.494457244873046
 10
3532.87060546875
 20
115.4065017700195
 30
-6.483207702636718
 10
3532.87060546875
 20
115.3727569580078
 30
-6.494457244873046
 10
3652.885498046875
 20
115.4065475463867
 30
-6.494457244873046
 10
3652.89697265625
 20
115.3727569580078
 30
-6.494457244873046
 10
3532.882080078125
 20
113.8470153808593
 30
27.48015975952148
 10
3532.87060546875
 20
113.8470153808593
 30
27.44641494750977
 10
3652.89697265625
 20
113.8582611083984
 30
27.48016357421875
 10
3652.89697265625
 20
113.8470153808593
 30
27.44641494750977
 10
3532.87060546875
 20
115.406509399414
 30
27.48016357421875
 10
3532.87060546875
 20
115.4177551269531
 30
27.44641494750977
 10
3652.885498046875
 20
115.4177551269531
 30
27.48015975952148
 10
3652.89697265625
 20
115.4177551269531
 30
27.44641494750977
 10
3532.87060546875
 20
113.8920135498047
 30
-6.494457244873046
 10
3532.915771484375
 20
115.4177474975586
 30
-6.494457244873046
 10
3652.851806640625
 20
115.4177551269531
 30
-6.494457244873046
 10
3652.89697265625
 20
113.8920135498047
 30
-6.494457244873046
 10
3532.915771484375
 20
113.8470153808593
 30
27.49141693115234
 10
3652.851806640625
 20
113.8470153808593
 30
27.49141311645508
 10
3652.89697265625
 20
113.8920135498047
 30
27.49141693115234
 10
3652.89697265625
 20
115.3727569580078
 30
27.49140930175781
 10
3652.851806640625
 20
115.4177551269531
 30
27.49141693115234
 10
3532.915771484375
 20
115.4177551269531
 30
27.49141311645508
 10
3532.87060546875
 20
115.3727569580078
 30
27.49141693115234
 10
3532.87060546875
 20
113.8920135498047
 30
27.49140930175781
 10
3652.89697265625
 20
113.8470153808593
 30
-6.449457168579101
 10
3532.87060546875
 20
113.8470153808593
 30
-6.449457168579101
 10
3652.89697265625
 20
115.4178085327148
 30
-6.449457168579101
 10
3532.87060546875
 20
115.4177551269531
 30
-6.449457168579101
 93
      294
 90
        4
 90
        0
 90
        1
 90
        2
 90
        3
 90
        4
 90
        4
 90
        5
 90
        6
 90
        7
 90
        4
 90
        8
 90
        9
 90
       10
 90
       11
 90
        4
 90
       12
 90
       13
 90
       14
 90
       15
 90
        4
 90
       16
 90
       17
 90
       18
 90
       19
 90
        4
 90
       20
 90
       21
 90
       22
 90
       23
 90
        3
 90
        8
 90
       24
 90
       25
 90
        3
 90
        3
 90
       26
 90
       27
 90
        3
 90
       20
 90
       28
 90
       29
 90
        3
 90
        2
 90
       30
 90
       31
 90
        3
 90
       11
 90
       32
 90
       33
 90
        3
 90
       15
 90
       34
 90
       35
 90
        3
 90
       23
 90
       36
 90
       37
 90
        3
 90
       19
 90
       38
 90
       39
 90
        4
 90
        0
 90
       40
 90
       29
 90
        1
 90
        4
 90
        1
 90
       41
 90
       42
 90
        2
 90
        4
 90
        2
 90
       31
 90
       43
 90
        3
 90
        4
 90
        3
 90
       27
 90
       25
 90
        0
 90
        4
 90
        4
 90
       44
 90
       45
 90
        5
 90
        4
 90
        5
 90
       46
 90
       47
 90
        6
 90
        4
 90
        6
 90
       48
 90
       49
 90
        7
 90
        4
 90
        7
 90
       50
 90
       51
 90
        4
 90
        4
 90
        9
 90
       52
 90
       35
 90
       10
 90
        4
 90
       11
 90
       33
 90
       53
 90
        8
 90
        4
 90
       13
 90
       54
 90
       39
 90
       14
 90
        4
 90
       17
 90
       55
 90
       37
 90
       18
 90
        3
 90
        8
 90
       53
 90
       24
 90
        4
 90
       53
 90
       21
 90
       40
 90
       24
 90
        4
 90
       24
 90
       40
 90
        0
 90
       25
 90
        3
 90
        3
 90
       43
 90
       26
 90
        4
 90
       43
 90
       12
 90
       52
 90
       26
 90
        4
 90
       26
 90
       52
 90
        9
 90
       27
 90
        3
 90
       20
 90
       55
 90
       28
 90
        4
 90
       55
 90
       17
 90
       41
 90
       28
 90
        4
 90
       28
 90
       41
 90
        1
 90
       29
 90
        3
 90
        2
 90
       42
 90
       30
 90
        4
 90
       42
 90
       16
 90
       54
 90
       30
 90
        4
 90
       30
 90
       54
 90
       13
 90
       31
 90
        3
 90
       11
 90
       44
 90
       32
 90
        4
 90
       44
 90
        4
 90
       51
 90
       32
 90
        4
 90
       32
 90
       51
 90
       22
 90
       33
 90
        3
 90
       15
 90
       46
 90
       34
 90
        4
 90
       46
 90
        5
 90
       45
 90
       34
 90
        4
 90
       34
 90
       45
 90
       10
 90
       35
 90
        3
 90
       23
 90
       50
 90
       36
 90
        4
 90
       50
 90
        7
 90
       49
 90
       36
 90
        4
 90
       36
 90
       49
 90
       18
 90
       37
 90
        3
 90
       19
 90
       48
 90
       38
 90
        4
 90
       48
 90
        6
 90
       47
 90
       38
 90
        4
 90
       38
 90
       47
 90
       14
 90
       39
 90
        4
 90
       40
 90
       21
 90
       20
 90
       29
 90
        4
 90
       41
 90
       17
 90
       16
 90
       42
 90
        4
 90
       31
 90
       13
 90
       12
 90
       43
 90
        4
 90
       27
 90
        9
 90
        8
 90
       25
 90
        4
 90
       44
 90
       11
 90
       10
 90
       45
 90
        4
 90
       46
 90
       15
 90
       14
 90
       47
 90
        4
 90
       48
 90
       19
 90
       18
 90
       49
 90
        4
 90
       50
 90
       23
 90
       22
 90
       51
 90
        4
 90
       52
 90
       12
 90
       15
 90
       35
 90
        4
 90
       33
 90
       22
 90
       21
 90
       53
 90
        4
 90
       54
 90
       16
 90
       19
 90
       39
 90
        4
 90
       55
 90
       20
 90
       23
 90
       37
 94
      116
 90
        0
 90
        1
 90
        1
 90
        2
 90
        2
 90
        3
 90
        0
 90
        3
 90
        4
 90
        5
 90
        5
 90
        6
 90
        6
 90
        7
 90
        4
 90
        7
 90
        8
 90
        9
 90
        9
 90
       10
 90
       10
 90
       11
 90
        8
 90
       11
 90
       12
 90
       13
 90
       13
 90
       14
 90
       14
 90
       15
 90
       12
 90
       15
 90
       16
 90
       17
 90
       17
 90
       18
 90
       18
 90
       19
 90
       16
 90
       19
 90
       20
 90
       21
 90
       21
 90
       22
 90
       22
 90
       23
 90
       20
 90
       23
 90
        8
 90
       24
 90
       24
 90
       25
 90
        8
 90
       25
 90
        3
 90
       26
 90
       26
 90
       27
 90
        3
 90
       27
 90
       20
 90
       28
 90
       28
 90
       29
 90
       20
 90
       29
 90
        2
 90
       30
 90
       30
 90
       31
 90
        2
 90
       31
 90
       11
 90
       32
 90
       32
 90
       33
 90
       11
 90
       33
 90
       15
 90
       34
 90
       34
 90
       35
 90
       15
 90
       35
 90
       23
 90
       36
 90
       36
 90
       37
 90
       23
 90
       37
 90
       19
 90
       38
 90
       38
 90
       39
 90
       19
 90
       39
 90
        0
 90
       40
 90
       29
 90
       40
 90
        1
 90
       29
 90
        1
 90
       41
 90
       41
 90
       42
 90
        2
 90
       42
 90
       31
 90
       43
 90
        3
 90
       43
 90
       25
 90
       27
 90
        0
 90
       25
 90
        4
 90
       44
 90
       44
 90
       45
 90
        5
 90
       45
 90
        5
 90
       46
 90
       46
 90
       47
 90
        6
 90
       47
 90
        6
 90
       48
 90
       48
 90
       49
 90
        7
 90
       49
 90
        7
 90
       50
 90
       50
 90
       51
 90
        4
 90
       51
 90
        9
 90
       52
 90
       35
 90
       52
 90
       10
 90
       35
 90
       33
 90
       53
 90
        8
 90
       53
 90
       13
 90
       54
 90
       39
 90
       54
 90
       14
 90
       39
 90
       17
 90
       55
 90
       37
 90
       55
 90
       18
 90
       37
 90
       24
 90
       53
 90
       21
 90
       53
 90
       21
 90
       40
 90
       24
 90
       40
 90
       26
 90
       43
 90
       12
 90
       43
 90
       12
 90
       52
 90
       26
 90
       52
 90
        9
 90
       27
 90
       20
 90
       55
 90
       28
 90
       55
 90
       17
 90
       41
 90
       28
 90
       41
 90
       30
 90
       42
 90
       16
 90
       42
 90
       16
 90
       54
 90
       30
 90
       54
 90
       13
 90
       31
 90
       11
 90
       44
 90
       32
 90
       44
 90
       32
 90
       51
 90
       22
 90
       51
 90
       22
 90
       33
 90
       15
 90
       46
 90
       34
 90
       46
 90
       34
 90
       45
 90
       10
 90
       45
 90
       23
 90
       50
 90
       36
 90
       50
 90
       36
 90
       49
 90
       18
 90
       49
 90
       19
 90
       48
 90
       38
 90
       48
 90
       38
 90
       47
 90
       14
 90
       47
 95
      116
140
0.0
140
0.0
140
0.0
140
0.0
140
0.0
140
0.0
140
0.0
140
0.0
140
0.0
140
0.0
140
0.0
140
0.0
140
0.0
140
0.0
140
0.0
140
0.0
140
0.0
140
0.0
140
0.0
140
0.0
140
0.0
140
0.0
140
0.0
140
0.0
140
0.0
140
0.0
140
0.0
140
0.0
140
0.0
140
0.0
140
0.0
140
0.0
140
0.0
140
0.0
140
0.0
140
0.0
140
0.0
140
0.0
140
0.0
140
0.0
140
0.0
140
0.0
140
0.0
140
0.0
140
0.0
140
0.0
140
0.0
140
0.0
140
0.0
140
0.0
140
0.0
140
0.0
140
0.0
140
0.0
140
0.0
140
0.0
140
0.0
140
0.0
140
0.0
140
0.0
140
0.0
140
0.0
140
0.0
140
0.0
140
0.0
140
0.0
140
0.0
140
0.0
140
0.0
140
0.0
140
0.0
140
0.0
140
0.0
140
0.0
140
0.0
140
0.0
140
0.0
140
0.0
140
0.0
140
0.0
140
0.0
140
0.0
140
0.0
140
0.0
140
0.0
140
0.0
140
0.0
140
0.0
140
0.0
140
0.0
140
0.0
140
0.0
140
0.0
140
0.0
140
0.0
140
0.0
140
0.0
140
0.0
140
0.0
140
0.0
140
0.0
140
0.0
140
0.0
140
0.0
140
0.0
140
0.0
140
0.0
140
0.0
140
0.0
140
0.0
140
0.0
140
0.0
140
0.0
140
0.0
140
0.0
140
0.0
 90
        0
  0
ENDSEC
  0
SECTION
  2
OBJECTS
  0
DICTIONARY
  5
C
330
0
100
AcDbDictionary
281
     1
  3
ACAD_COLOR
350
DC
  3
ACAD_DETAILVIEWSTYLE
350
F5
  3
ACAD_GROUP
350
D
  3
ACAD_LAYOUT
350
1A
  3
ACAD_MATERIAL
350
AA
  3
ACAD_MLEADERSTYLE
350
F1
  3
ACAD_MLINESTYLE
350
17
  3
ACAD_PLOTSETTINGS
350
19
  3
ACAD_PLOTSTYLENAME
350
E
  3
ACAD_SCALELIST
350
DF
  3
ACAD_SECTIONVIEWSTYLE
350
F3
  3
ACAD_TABLESTYLE
350
DD
  3
ACAD_VISUALSTYLE
350
C3
  3
ACDB_RECOMPOSE_DATA
350
10B
  3
AcDbVariableDictionary
350
FB
  0
DICTIONARY
  5
DC
102
{ACAD_REACTORS
330
C
102
}
330
C
100
AcDbDictionary
281
     1
  0
DICTIONARY
  5
F5
102
{ACAD_REACTORS
330
C
102
}
330
C
100
AcDbDictionary
281
     1
  3
Imperial24
350
F6
  0
DICTIONARY
  5
D
102
{ACAD_REACTORS
330
C
102
}
330
C
100
AcDbDictionary
281
     1
  0
DICTIONARY
  5
1A
102
{ACAD_REACTORS
330
C
102
}
330
C
100
AcDbDictionary
281
     1
  3
Layout1
350
1E
  3
Layout2
350
26
  3
Model
350
22
  0
DICTIONARY
  5
AA
102
{ACAD_REACTORS
330
C
102
}
330
C
100
AcDbDictionary
281
     1
  3
ByBlock
350
B3
  3
ByLayer
350
AB
  3
Global
350
BB
  0
DICTIONARY
  5
F1
102
{ACAD_REACTORS
330
C
102
}
330
C
100
AcDbDictionary
281
     1
  3
Standard
350
F2
  0
DICTIONARY
  5
17
102
{ACAD_REACTORS
330
C
102
}
330
C
100
AcDbDictionary
281
     1
  3
Standard
350
18
  0
DICTIONARY
  5
19
102
{ACAD_REACTORS
330
C
102
}
330
C
100
AcDbDictionary
281
     1
  0
ACDBDICTIONARYWDFLT
  5
E
102
{ACAD_REACTORS
330
C
102
}
330
C
100
AcDbDictionary
281
     1
  3
ByLayer
350
2D
  3
Normal
350
F
100
AcDbDictionaryWithDefault
340
F
  0
DICTIONARY
  5
DF
102
{ACAD_REACTORS
330
C
102
}
330
C
100
AcDbDictionary
281
     1
  3
A0
350
E0
  3
A1
350
E1
  3
A2
350
E2
  3
A3
350
E3
  3
A4
350
E4
  3
A5
350
E5
  3
A6
350
E6
  3
A7
350
E7
  3
A8
350
E8
  3
A9
350
E9
  3
B0
350
EA
  3
B1
350
EB
  3
B2
350
EC
  3
B3
350
ED
  3
B4
350
EE
  3
B5
350
EF
  3
B6
350
F0
  0
DICTIONARY
  5
F3
102
{ACAD_REACTORS
330
C
102
}
330
C
100
AcDbDictionary
281
     1
  3
Imperial24
350
F4
  0
DICTIONARY
  5
DD
102
{ACAD_REACTORS
330
C
102
}
330
C
100
AcDbDictionary
281
     1
  3
Standard
350
DE
  0
DICTIONARY
  5
C3
102
{ACAD_REACTORS
330
C
102
}
330
C
100
AcDbDictionary
281
     1
  3
2dWireframe
350
C9
  3
Basic
350
C8
  3
Brighten
350
CF
  3
ColorChange
350
D3
  3
Conceptual
350
CC
  3
Dim
350
CE
  3
EdgeColorOff
350
DB
  3
Facepattern
350
D2
  3
Flat
350
C4
  3
FlatWithEdges
350
C5
  3
Gouraud
350
C6
  3
GouraudWithEdges
350
C7
  3
Hidden
350
CB
  3
JitterOff
350
D9
  3
Linepattern
350
D1
  3
OverhangOff
350
DA
  3
Realistic
350
CD
  3
Shaded
350
D8
  3
Shaded with edges
350
D7
  3
Shades of Gray
350
D4
  3
Sketchy
350
D5
  3
Thicken
350
D0
  3
Wireframe
350
CA
  3
X-Ray
350
D6
  0
XRECORD
  5
10B
102
{ACAD_REACTORS
330
C
102
}
330
C
100
AcDbXrecord
280
     1
 90
        1
330
DE
330
F4
330
F6
330
F9
330
FA
  0
DICTIONARY
  5
FB
102
{ACAD_REACTORS
330
C
102
}
330
C
100
AcDbDictionary
281
     1
  3
CANNOSCALE
350
101
  3
CMLEADERSTYLE
350
FD
  3
CTABLESTYLE
350
FC
  3
CVIEWDETAILSTYLE
350
FE
  3
CVIEWSECTIONSTYLE
350
FF
  3
LAYEREVAL
350
103
  3
LAYERNOTIFY
350
104
  3
LIGHTINGUNITS
350
102
  3
MSLTSCALE
350
100
  0
ACDBDETAILVIEWSTYLE
  5
F6
102
{ACAD_XDICTIONARY
360
109
102
}
102
{ACAD_REACTORS
330
F5
102
}
330
F5
100
AcDbModelDocViewStyle
 70
     0
  3
Imperial24
290
     0
100
AcDbDetailViewStyle
 70
     0
 71
     0
 90
        3
 71
     1
340
11
 62
   256
 40
0.24
340
0
 62
   256
 40
0.24
300

 40
0.36
280
     3
 71
     2
340
16
 90
       25
 62
   256
 71
     3
340
11
 62
   256
 40
0.24
 90
        1
 40
0.75
 90
        1
300
%<\AcVar ViewType \f "%tc1">% %<\AcVar ViewDetailId>%\PSCALE %<\AcVar ViewScale \f "%sn">%
 71
     4
340
16
 90
       25
 62
   256
340
16
 90
       25
 62
   256
280
     0
  0
LAYOUT
  5
1E
102
{ACAD_REACTORS
330
1A
102
}
330
1A
100
AcDbPlotSettings
  1

  2
\\KTXNTBDC\CASF2PN1
  4

  6

 40
0.0
 41
0.0
 42
0.0
 43
0.0
 44
0.0
 45
0.0
 46
0.0
 47
0.0
 48
0.0
 49
0.0
140
0.0
141
0.0
142
1.0
143
1.0
 70
   688
 72
     0
 73
     0
 74
     5
  7

 75
    16
147
1.0
 76
     0
 77
     2
 78
   300
148
0.0
149
0.0
100
AcDbLayout
  1
Layout1
 70
     1
 71
     1
 10
0.0
 20
0.0
 11
12.0
 21
9.0
 12
0.0
 22
0.0
 32
0.0
 14
1.000000000000000E+20
 24
1.000000000000000E+20
 34
1.000000000000000E+20
 15
-1.000000000000000E+20
 25
-1.000000000000000E+20
 35
-1.000000000000000E+20
146
0.0
 13
0.0
 23
0.0
 33
0.0
 16
1.0
 26
0.0
 36
0.0
 17
0.0
 27
1.0
 37
0.0
 76
     0
330
1B
  0
LAYOUT
  5
26
102
{ACAD_REACTORS
330
1A
102
}
330
1A
100
AcDbPlotSettings
  1

  2
\\KTXNTBDC\CASF2PN1
  4

  6

 40
0.0
 41
0.0
 42
0.0
 43
0.0
 44
0.0
 45
0.0
 46
0.0
 47
0.0
 48
0.0
 49
0.0
140
0.0
141
0.0
142
1.0
143
1.0
 70
   688
 72
     0
 73
     0
 74
     5
  7

 75
    16
147
1.0
 76
     0
 77
     2
 78
   300
148
0.0
149
0.0
100
AcDbLayout
  1
Layout2
 70
     1
 71
     2
 10
0.0
 20
0.0
 11
12.0
 21
9.0
 12
0.0
 22
0.0
 32
0.0
 14
0.0
 24
0.0
 34
0.0
 15
0.0
 25
0.0
 35
0.0
146
0.0
 13
0.0
 23
0.0
 33
0.0
 16
1.0
 26
0.0
 36
0.0
 17
0.0
 27
1.0
 37
0.0
 76
     0
330
23
  0
LAYOUT
  5
22
102
{ACAD_REACTORS
330
1A
102
}
330
1A
100
AcDbPlotSettings
  1

  2
\\KTXNTBDC\CASF2PN1
  4

  6

 40
0.0
 41
0.0
 42
0.0
 43
0.0
 44
0.0
 45
0.0
 46
0.0
 47
0.0
 48
0.0
 49
0.0
140
0.0
141
0.0
142
1.0
143
1.0
 70
  1712
 72
     0
 73
     0
 74
     0
  7

 75
     0
147
1.0
 76
     0
 77
     2
 78
   300
148
0.0
149
0.0
100
AcDbLayout
  1
Model
 70
     1
 71
     0
 10
0.0
 20
0.0
 11
12.0
 21
9.0
 12
0.0
 22
0.0
 32
0.0
 14
0.0
 24
0.0
 34
0.0
 15
0.0
 25
0.0
 35
0.0
146
0.0
 13
0.0
 23
0.0
 33
0.0
 16
1.0
 26
0.0
 36
0.0
 17
0.0
 27
1.0
 37
0.0
 76
     0
330
1F
  0
MATERIAL
  5
B3
102
{ACAD_XDICTIONARY
360
B4
102
}
102
{ACAD_REACTORS
330
AA
102
}
330
AA
100
AcDbMaterial
  1
ByBlock
 72
     0
 43
0.0208333333333333
 43
0.0
 43
0.0
 43
0.0
 43
0.0
 43
0.0208333333333333
 43
0.0
 43
0.0
 43
0.0
 43
0.0
 43
1.0
 43
0.0
 43
0.0
 43
0.0
 43
0.0
 43
1.0
 77
     0
 47
0.0208333333333333
 47
0.0
 47
0.0
 47
0.0
 47
0.0
 47
0.0208333333333333
 47
0.0
 47
0.0
 47
0.0
 47
0.0
 47
1.0
 47
0.0
 47
0.0
 47
0.0
 47
0.0
 47
1.0
171
     0
 49
0.0208333333333333
 49
0.0
 49
0.0
 49
0.0
 49
0.0
 49
0.0208333333333333
 49
0.0
 49
0.0
 49
0.0
 49
0.0
 49
1.0
 49
0.0
 49
0.0
 49
0.0
 49
0.0
 49
1.0
175
     0
142
0.0208333333333333
142
0.0
142
0.0
142
0.0
142
0.0
142
0.0208333333333333
142
0.0
142
0.0
142
0.0
142
0.0
142
1.0
142
0.0
142
0.0
142
0.0
142
0.0
142
1.0
179
     0
144
0.0208333333333333
144
0.0
144
0.0
144
0.0
144
0.0
144
0.0208333333333333
144
0.0
144
0.0
144
0.0
144
0.0
144
1.0
144
0.0
144
0.0
144
0.0
144
0.0
144
1.0
147
0.0208333333333333
147
0.0
147
0.0
147
0.0
147
0.0
147
0.0208333333333333
147
0.0
147
0.0
147
0.0
147
0.0
147
1.0
147
0.0
147
0.0
147
0.0
147
0.0
147
1.0
  0
MATERIAL
  5
AB
102
{ACAD_XDICTIONARY
360
AC
102
}
102
{ACAD_REACTORS
330
AA
102
}
330
AA
100
AcDbMaterial
  1
ByLayer
 72
     0
 43
0.0208333333333333
 43
0.0
 43
0.0
 43
0.0
 43
0.0
 43
0.0208333333333333
 43
0.0
 43
0.0
 43
0.0
 43
0.0
 43
1.0
 43
0.0
 43
0.0
 43
0.0
 43
0.0
 43
1.0
 77
     0
 47
0.0208333333333333
 47
0.0
 47
0.0
 47
0.0
 47
0.0
 47
0.0208333333333333
 47
0.0
 47
0.0
 47
0.0
 47
0.0
 47
1.0
 47
0.0
 47
0.0
 47
0.0
 47
0.0
 47
1.0
171
     0
 49
0.0208333333333333
 49
0.0
 49
0.0
 49
0.0
 49
0.0
 49
0.0208333333333333
 49
0.0
 49
0.0
 49
0.0
 49
0.0
 49
1.0
 49
0.0
 49
0.0
 49
0.0
 49
0.0
 49
1.0
175
     0
142
0.0208333333333333
142
0.0
142
0.0
142
0.0
142
0.0
142
0.0208333333333333
142
0.0
142
0.0
142
0.0
142
0.0
142
1.0
142
0.0
142
0.0
142
0.0
142
0.0
142
1.0
179
     0
144
0.0208333333333333
144
0.0
144
0.0
144
0.0
144
0.0
144
0.0208333333333333
144
0.0
144
0.0
144
0.0
144
0.0
144
1.0
144
0.0
144
0.0
144
0.0
144
0.0
144
1.0
147
0.0208333333333333
147
0.0
147
0.0
147
0.0
147
0.0
147
0.0208333333333333
147
0.0
147
0.0
147
0.0
147
0.0
147
1.0
147
0.0
147
0.0
147
0.0
147
0.0
147
1.0
  0
MATERIAL
  5
BB
102
{ACAD_XDICTIONARY
360
BC
102
}
102
{ACAD_REACTORS
330
AA
102
}
330
AA
100
AcDbMaterial
  1
Global
 72
     0
 43
0.0208333333333333
 43
0.0
 43
0.0
 43
0.0
 43
0.0
 43
0.0208333333333333
 43
0.0
 43
0.0
 43
0.0
 43
0.0
 43
1.0
 43
0.0
 43
0.0
 43
0.0
 43
0.0
 43
1.0
 77
     0
 47
0.0208333333333333
 47
0.0
 47
0.0
 47
0.0
 47
0.0
 47
0.0208333333333333
 47
0.0
 47
0.0
 47
0.0
 47
0.0
 47
1.0
 47
0.0
 47
0.0
 47
0.0
 47
0.0
 47
1.0
171
     0
 49
0.0208333333333333
 49
0.0
 49
0.0
 49
0.0
 49
0.0
 49
0.0208333333333333
 49
0.0
 49
0.0
 49
0.0
 49
0.0
 49
1.0
 49
0.0
 49
0.0
 49
0.0
 49
0.0
 49
1.0
175
     0
142
0.0208333333333333
142
0.0
142
0.0
142
0.0
142
0.0
142
0.0208333333333333
142
0.0
142
0.0
142
0.0
142
0.0
142
1.0
142
0.0
142
0.0
142
0.0
142
0.0
142
1.0
179
     0
144
0.0208333333333333
144
0.0
144
0.0
144
0.0
144
0.0
144
0.0208333333333333
144
0.0
144
0.0
144
0.0
144
0.0
144
1.0
144
0.0
144
0.0
144
0.0
144
0.0
144
1.0
147
0.0208333333333333
147
0.0
147
0.0
147
0.0
147
0.0
147
0.0208333333333333
147
0.0
147
0.0
147
0.0
147
0.0
147
1.0
147
0.0
147
0.0
147
0.0
147
0.0
147
1.0
  0
MLEADERSTYLE
  5
F2
102
{ACAD_REACTORS
330
F1
102
}
330
F1
100
AcDbMLeaderStyle
179
     2
170
     2
171
     1
172
     0
 90
        2
 40
0.0
 41
0.0
173
     1
 91
-1056964608
340
14
 92
       -2
290
     1
 42
0.09
291
     1
 43
0.36
  3
Standard
 44
0.18
300

342
11
174
     1
178
     6
175
     1
176
     0
 93
-1056964608
 45
0.18
292
     0
297
     0
 46
0.18
 94
-1056964608
 47
1.0
 49
1.0
140
1.0
293
     1
141
0.0
294
     1
177
     0
142
1.0
295
     1
296
     0
143
0.125
271
     0
272
     9
273
     9
298
     1
  0
MLINESTYLE
  5
18
102
{ACAD_REACTORS
330
17
102
}
330
17
100
AcDbMlineStyle
  2
STANDARD
 70
     0
  3

 62
   256
 51
90.0
 52
90.0
 71
     2
 49
0.5
 62
   256
  6
BYLAYER
 49
-0.5
 62
   256
  6
BYLAYER
  0
ACDBPLACEHOLDER
  5
2D
102
{ACAD_REACTORS
330
E
102
}
330
E
  0
ACDBPLACEHOLDER
  5
F
102
{ACAD_REACTORS
330
E
102
}
330
E
  0
SCALE
  5
E0
102
{ACAD_REACTORS
330
DF
102
}
330
DF
100
AcDbScale
 70
     0
300
1:1
140
1.0
141
1.0
290
     1
  0
SCALE
  5
E1
102
{ACAD_REACTORS
330
DF
102
}
330
DF
100
AcDbScale
 70
     0
300
1/128" = 1'-0"
140
0.0078125
141
12.0
290
     0
  0
SCALE
  5
E2
102
{ACAD_REACTORS
330
DF
102
}
330
DF
100
AcDbScale
 70
     0
300
1/64" = 1'-0"
140
0.015625
141
12.0
290
     0
  0
SCALE
  5
E3
102
{ACAD_REACTORS
330
DF
102
}
330
DF
100
AcDbScale
 70
     0
300
1/32" = 1'-0"
140
0.03125
141
12.0
290
     0
  0
SCALE
  5
E4
102
{ACAD_REACTORS
330
DF
102
}
330
DF
100
AcDbScale
 70
     0
300
1/16" = 1'-0"
140
0.0625
141
12.0
290
     0
  0
SCALE
  5
E5
102
{ACAD_REACTORS
330
DF
102
}
330
DF
100
AcDbScale
 70
     0
300
3/32" = 1'-0"
140
0.09375
141
12.0
290
     0
  0
SCALE
  5
E6
102
{ACAD_REACTORS
330
DF
102
}
330
DF
100
AcDbScale
 70
     0
300
1/8" = 1'-0"
140
0.125
141
12.0
290
     0
  0
SCALE
  5
E7
102
{ACAD_REACTORS
330
DF
102
}
330
DF
100
AcDbScale
 70
     0
300
3/16" = 1'-0"
140
0.1875
141
12.0
290
     0
  0
SCALE
  5
E8
102
{ACAD_REACTORS
330
DF
102
}
330
DF
100
AcDbScale
 70
     0
300
1/4" = 1'-0"
140
0.25
141
12.0
290
     0
  0
SCALE
  5
E9
102
{ACAD_REACTORS
330
DF
102
}
330
DF
100
AcDbScale
 70
     0
300
3/8" = 1'-0"
140
0.375
141
12.0
290
     0
  0
SCALE
  5
EA
102
{ACAD_REACTORS
330
DF
102
}
330
DF
100
AcDbScale
 70
     0
300
1/2" = 1'-0"
140
0.5
141
12.0
290
     0
  0
SCALE
  5
EB
102
{ACAD_REACTORS
330
DF
102
}
330
DF
100
AcDbScale
 70
     0
300
3/4" = 1'-0"
140
0.75
141
12.0
290
     0
  0
SCALE
  5
EC
102
{ACAD_REACTORS
330
DF
102
}
330
DF
100
AcDbScale
 70
     0
300
1" = 1'-0"
140
1.0
141
12.0
290
     0
  0
SCALE
  5
ED
102
{ACAD_REACTORS
330
DF
102
}
330
DF
100
AcDbScale
 70
     0
300
1-1/2" = 1'-0"
140
1.5
141
12.0
290
     0
  0
SCALE
  5
EE
102
{ACAD_REACTORS
330
DF
102
}
330
DF
100
AcDbScale
 70
     0
300
3" = 1'-0"
140
3.0
141
12.0
290
     0
  0
SCALE
  5
EF
102
{ACAD_REACTORS
330
DF
102
}
330
DF
100
AcDbScale
 70
     0
300
6" = 1'-0"
140
6.0
141
12.0
290
     0
  0
SCALE
  5
F0
102
{ACAD_REACTORS
330
DF
102
}
330
DF
100
AcDbScale
 70
     0
300
1'-0" = 1'-0"
140
12.0
141
12.0
290
     0
  0
ACDBSECTIONVIEWSTYLE
  5
F4
102
{ACAD_XDICTIONARY
360
107
102
}
102
{ACAD_REACTORS
330
F3
102
}
330
F3
100
AcDbModelDocViewStyle
 70
     0
  3
Imperial24
290
     0
100
AcDbSectionViewStyle
 70
     0
 71
     0
 90
       78
 71
     1
340
11
 62
   256
 40
0.24
340
0
340
0
 62
   256
 40
0.24
300
I, O, Q, S, X, Z
 40
0.48
 90
        3
 40
0.18
 90
        1
 71
     2
340
16
 90
       25
 62
   256
340
16
 90
       50
 62
   256
 40
0.24
 40
0.0
 40
0.24
 71
     3
340
11
 62
   256
 40
0.24
 90
        1
 40
0.75
 90
        1
300
%<\AcVar ViewType \f "%tc1">% %<\AcVar ViewSectionStartId>%-%<\AcVar ViewSectionEndId>%\PSCALE %<\AcVar ViewScale \f "%sn">%
 71
     4
 62
   256
 62
   257
300
ANSI31
 40
1.0
 90
        0
290
     0
290
     0
 90
        6
 40
0.0
 40
1.570796326794896
 40
0.2617993877991494
 40
1.308996938995747
 40
-0.2617993877991494
 40
1.832595714594046
  0
TABLESTYLE
  5
DE
102
{ACAD_XDICTIONARY
360
105
102
}
102
{ACAD_REACTORS
330
DD
102
}
330
DD
100
AcDbTableStyle
280
     0
  3
Standard
 70
     0
 71
     0
 40
0.06
 41
0.06
280
     0
281
     0
  7
Standard
140
0.18
170
     2
 62
     0
 63
     7
283
     0
 90
      512
 91
        0
  1

274
    -2
284
     1
 64
     0
275
    -2
285
     1
 65
     0
276
    -2
286
     1
 66
     0
277
    -2
287
     1
 67
     0
278
    -2
288
     1
 68
     0
279
    -2
289
     1
 69
     0
  7
Standard
140
0.25
170
     5
 62
     0
 63
     7
283
     0
 90
      512
 91
        0
  1

274
    -2
284
     1
 64
     0
275
    -2
285
     1
 65
     0
276
    -2
286
     1
 66
     0
277
    -2
287
     1
 67
     0
278
    -2
288
     1
 68
     0
279
    -2
289
     1
 69
     0
  7
Standard
140
0.18
170
     5
 62
     0
 63
     7
283
     0
 90
      512
 91
        0
  1

274
    -2
284
     1
 64
     0
275
    -2
285
     1
 65
     0
276
    -2
286
     1
 66
     0
277
    -2
287
     1
 67
     0
278
    -2
288
     1
 68
     0
279
    -2
289
     1
 69
     0
  0
VISUALSTYLE
  5
C9
102
{ACAD_REACTORS
330
C3
102
}
330
C3
100
AcDbVisualStyle
  2
2dWireframe
 70
     4
177
     3
291
     0
 70
    58
 90
        0
176
     1
 90
        2
176
     1
 90
        0
176
     1
 90
        0
176
     1
 40
0.6
176
     1
 40
30.0
176
     1
 62
     7
420
 16777215
176
     1
 90
        1
176
     1
 90
        4
176
     1
 62
     7
176
     1
 62
   257
176
     1
 90
        1
176
     1
 90
        1
176
     1
 40
1.0
176
     1
 90
        0
176
     1
 62
   257
176
     1
 40
1.0
176
     1
 90
        1
176
     1
 90
        6
176
     1
 90
        2
176
     1
 62
     7
176
     1
 90
        5
176
     1
 90
        0
176
     1
 90
        0
176
     1
290
     0
176
     1
 90
        1
176
     1
 40
0.0
176
     1
 90
        0
176
     1
290
     1
176
     1
290
     1
176
     1
290
     0
176
     1
290
     0
176
     1
290
     0
176
     1
290
     0
176
     1
290
     0
176
     1
290
     0
176
     1
290
     0
176
     1
 90
       50
176
     1
 40
0.0
176
     1
 40
1.0
176
     1
 90
        0
176
     1
 62
    18
420
        0
176
     1
 90
       50
176
     1
 90
        3
176
     1
 62
     5
420
      255
176
     1
290
     0
176
     1
 90
       50
176
     1
 90
       50
176
     1
 90
       50
176
     1
290
     0
176
     1
 90
       50
176
     1
 62
   256
176
     0
 40
1.0
176
     0
 90
        2
176
     1
  1
strokes_ogs.tif
176
     1
290
     0
176
     1
 40
1.0
176
     1
 40
1.0
176
     1
  0
VISUALSTYLE
  5
C8
102
{ACAD_REACTORS
330
C3
102
}
330
C3
100
AcDbVisualStyle
  2
Basic
 70
     7
177
     3
291
     1
 70
    58
 90
        1
176
     1
 90
        0
176
     1
 90
        1
176
     1
 90
        0
176
     1
 40
0.6
176
     1
 40
30.0
176
     1
 62
     7
420
 16777215
176
     1
 90
        0
176
     1
 90
        4
176
     1
 62
     7
176
     1
 62
   257
176
     1
 90
        1
176
     1
 90
        1
176
     1
 40
1.0
176
     1
 90
        8
176
     1
 62
     7
176
     1
 40
1.0
176
     1
 90
        1
176
     1
 90
        6
176
     1
 90
        2
176
     1
 62
     7
176
     1
 90
        5
176
     1
 90
        0
176
     1
 90
        0
176
     1
290
     0
176
     1
 90
        1
176
     1
 40
0.0
176
     1
 90
        0
176
     1
290
     0
176
     1
290
     1
176
     1
290
     1
176
     1
290
     0
176
     1
290
     0
176
     1
290
     0
176
     1
290
     0
176
     1
290
     0
176
     1
290
     0
176
     1
 90
       50
176
     1
 40
0.0
176
     1
 40
1.0
176
     1
 90
        0
176
     1
 62
    18
420
        0
176
     1
 90
       50
176
     1
 90
        3
176
     1
 62
     5
420
      255
176
     1
290
     0
176
     1
 90
       50
176
     1
 90
       50
176
     1
 90
       50
176
     1
290
     0
176
     1
 90
       50
176
     1
 62
   256
176
     0
 40
1.0
176
     0
 90
        2
176
     1
  1
strokes_ogs.tif
176
     1
290
     0
176
     1
 40
1.0
176
     1
 40
1.0
176
     1
  0
VISUALSTYLE
  5
CF
102
{ACAD_REACTORS
330
C3
102
}
330
C3
100
AcDbVisualStyle
  2
Brighten
 70
    12
177
     3
291
     1
 70
    58
 90
        2
176
     1
 90
        2
176
     1
 90
        0
176
     1
 90
        0
176
     1
 40
0.6
176
     1
 40
30.0
176
     1
 62
     7
420
 16777215
176
     1
 90
        1
176
     1
 90
        4
176
     1
 62
     7
176
     1
 62
   257
176
     1
 90
        1
176
     1
 90
        1
176
     1
 40
1.0
176
     1
 90
        8
176
     1
 62
     7
176
     1
 40
1.0
176
     1
 90
        1
176
     1
 90
        6
176
     1
 90
        2
176
     1
 62
     7
176
     1
 90
        5
176
     1
 90
        0
176
     1
 90
        0
176
     1
290
     0
176
     1
 90
        1
176
     1
 40
50.0
176
     1
 90
        0
176
     1
290
     0
176
     1
290
     1
176
     1
290
     1
176
     1
290
     0
176
     1
290
     0
176
     1
290
     0
176
     1
290
     0
176
     1
290
     0
176
     1
290
     0
176
     1
 90
       50
176
     1
 40
0.0
176
     1
 40
1.0
176
     1
 90
        0
176
     1
 62
    18
420
        0
176
     1
 90
       50
176
     1
 90
        3
176
     1
 62
     5
420
      255
176
     1
290
     0
176
     1
 90
       50
176
     1
 90
       50
176
     1
 90
       50
176
     1
290
     0
176
     1
 90
       50
176
     1
 62
   256
176
     0
 40
1.0
176
     0
 90
        2
176
     1
  1
strokes_ogs.tif
176
     1
290
     0
176
     1
 40
1.0
176
     1
 40
1.0
176
     1
  0
VISUALSTYLE
  5
D3
102
{ACAD_REACTORS
330
C3
102
}
330
C3
100
AcDbVisualStyle
  2
ColorChange
 70
    16
177
     3
291
     1
 70
    58
 90
        2
176
     1
 90
        2
176
     1
 90
        3
176
     1
 90
        0
176
     1
 40
0.6
176
     1
 40
30.0
176
     1
 62
     8
420
  8421504
176
     1
 90
        1
176
     1
 90
        4
176
     1
 62
     7
176
     1
 62
   257
176
     1
 90
        1
176
     1
 90
        1
176
     1
 40
1.0
176
     1
 90
        8
176
     1
 62
     8
420
  8421504
176
     1
 40
1.0
176
     1
 90
        1
176
     1
 90
        6
176
     1
 90
        2
176
     1
 62
     7
176
     1
 90
        5
176
     1
 90
        0
176
     1
 90
        0
176
     1
290
     0
176
     1
 90
        1
176
     1
 40
0.0
176
     1
 90
        0
176
     1
290
     0
176
     1
290
     1
176
     1
290
     1
176
     1
290
     0
176
     1
290
     0
176
     1
290
     0
176
     1
290
     0
176
     1
290
     0
176
     1
290
     0
176
     1
 90
       50
176
     1
 40
0.0
176
     1
 40
1.0
176
     1
 90
        0
176
     1
 62
    18
420
        0
176
     1
 90
       50
176
     1
 90
        3
176
     1
 62
     5
420
      255
176
     1
290
     0
176
     1
 90
       50
176
     1
 90
       50
176
     1
 90
       50
176
     1
290
     0
176
     1
 90
       50
176
     1
 62
   256
176
     0
 40
1.0
176
     0
 90
        2
176
     1
  1
strokes_ogs.tif
176
     1
290
     0
176
     1
 40
1.0
176
     1
 40
1.0
176
     1
  0
VISUALSTYLE
  5
CC
102
{ACAD_REACTORS
330
C3
102
}
330
C3
100
AcDbVisualStyle
  2
Conceptual
 70
     9
177
     3
291
     0
 70
    58
 90
        3
176
     1
 90
        2
176
     1
 90
        0
176
     1
 90
        0
176
     1
 40
0.6
176
     1
 40
30.0
176
     1
 62
     7
420
 16777215
176
     1
 90
        2
176
     1
 90
        2
176
     1
 62
     7
176
     1
 62
   257
176
     1
 90
        1
176
     1
 90
        1
176
     1
 40
179.0
176
     1
 90
        8
176
     1
 62
     7
176
     1
 40
1.0
176
     1
 90
        1
176
     1
 90
        6
176
     1
 90
        2
176
     1
 62
     7
176
     1
 90
        3
176
     1
 90
        0
176
     1
 90
        0
176
     1
290
     0
176
     1
 90
        1
176
     1
 40
0.0
176
     1
 90
        0
176
     1
290
     0
176
     1
290
     1
176
     1
290
     1
176
     1
290
     0
176
     1
290
     0
176
     1
290
     0
176
     1
290
     0
176
     1
290
     0
176
     1
290
     0
176
     1
 90
       50
176
     1
 40
0.0
176
     1
 40
1.0
176
     1
 90
        0
176
     1
 62
    18
420
        0
176
     1
 90
       50
176
     1
 90
        3
176
     1
 62
     5
420
      255
176
     1
290
     0
176
     1
 90
       50
176
     1
 90
       50
176
     1
 90
       50
176
     1
290
     0
176
     1
 90
       50
176
     1
 62
   256
176
     0
 40
1.0
176
     0
 90
        2
176
     1
  1
strokes_ogs.tif
176
     1
290
     0
176
     1
 40
1.0
176
     1
 40
1.0
176
     1
  0
VISUALSTYLE
  5
CE
102
{ACAD_REACTORS
330
C3
102
}
330
C3
100
AcDbVisualStyle
  2
Dim
 70
    11
177
     3
291
     1
 70
    58
 90
        2
176
     1
 90
        2
176
     1
 90
        0
176
     1
 90
        0
176
     1
 40
0.6
176
     1
 40
30.0
176
     1
 62
     7
420
 16777215
176
     1
 90
        1
176
     1
 90
        4
176
     1
 62
     7
176
     1
 62
   257
176
     1
 90
        1
176
     1
 90
        1
176
     1
 40
1.0
176
     1
 90
        8
176
     1
 62
     7
176
     1
 40
1.0
176
     1
 90
        1
176
     1
 90
        6
176
     1
 90
        2
176
     1
 62
     7
176
     1
 90
        5
176
     1
 90
        0
176
     1
 90
        0
176
     1
290
     0
176
     1
 90
        1
176
     1
 40
-50.0
176
     1
 90
        0
176
     1
290
     0
176
     1
290
     1
176
     1
290
     1
176
     1
290
     0
176
     1
290
     0
176
     1
290
     0
176
     1
290
     0
176
     1
290
     0
176
     1
290
     0
176
     1
 90
       50
176
     1
 40
0.0
176
     1
 40
1.0
176
     1
 90
        0
176
     1
 62
    18
420
        0
176
     1
 90
       50
176
     1
 90
        3
176
     1
 62
     5
420
      255
176
     1
290
     0
176
     1
 90
       50
176
     1
 90
       50
176
     1
 90
       50
176
     1
290
     0
176
     1
 90
       50
176
     1
 62
   256
176
     0
 40
1.0
176
     0
 90
        2
176
     1
  1
strokes_ogs.tif
176
     1
290
     0
176
     1
 40
1.0
176
     1
 40
1.0
176
     1
  0
VISUALSTYLE
  5
DB
102
{ACAD_REACTORS
330
C3
102
}
330
C3
100
AcDbVisualStyle
  2
EdgeColorOff
 70
    22
177
     3
291
     1
 70
    58
 90
        2
176
     0
 90
        2
176
     0
 90
        0
176
     0
 90
        0
176
     0
 40
0.6
176
     0
 40
30.0
176
     0
 62
     7
420
 16777215
176
     0
 90
        1
176
     0
 90
        4
176
     0
 62
     7
176
     0
 62
   257
176
     0
 90
        1
176
     0
 90
        1
176
     0
 40
1.0
176
     0
 90
        8
176
     2
 62
     7
176
     0
 40
1.0
176
     0
 90
        1
176
     0
 90
        6
176
     0
 90
        2
176
     0
 62
     7
176
     0
 90
        5
176
     0
 90
        0
176
     0
 90
        0
176
     0
290
     0
176
     0
 90
        1
176
     0
 40
0.0
176
     0
 90
        0
176
     0
290
     0
176
     0
290
     1
176
     0
290
     1
176
     0
290
     0
176
     0
290
     0
176
     0
290
     0
176
     0
290
     0
176
     0
290
     0
176
     0
290
     0
176
     0
 90
       50
176
     0
 40
0.0
176
     0
 40
1.0
176
     0
 90
        0
176
     0
 62
    18
420
        0
176
     0
 90
       50
176
     0
 90
        3
176
     0
 62
     5
420
      255
176
     0
290
     0
176
     0
 90
       50
176
     0
 90
       50
176
     0
 90
       50
176
     0
290
     0
176
     0
 90
       50
176
     0
 62
   256
176
     0
 40
1.0
176
     0
 90
        2
176
     0
  1
strokes_ogs.tif
176
     0
290
     0
176
     0
 40
1.0
176
     0
 40
1.0
176
     0
  0
VISUALSTYLE
  5
D2
102
{ACAD_REACTORS
330
C3
102
}
330
C3
100
AcDbVisualStyle
  2
Facepattern
 70
    15
177
     3
291
     1
 70
    58
 90
        2
176
     1
 90
        2
176
     1
 90
        0
176
     1
 90
        0
176
     1
 40
0.6
176
     1
 40
30.0
176
     1
 62
     7
420
 16777215
176
     1
 90
        1
176
     1
 90
        4
176
     1
 62
     7
176
     1
 62
   257
176
     1
 90
        1
176
     1
 90
        1
176
     1
 40
1.0
176
     1
 90
        8
176
     1
 62
     7
176
     1
 40
1.0
176
     1
 90
        1
176
     1
 90
        6
176
     1
 90
        2
176
     1
 62
     7
176
     1
 90
        5
176
     1
 90
        0
176
     1
 90
        0
176
     1
290
     0
176
     1
 90
        1
176
     1
 40
0.0
176
     1
 90
        0
176
     1
290
     0
176
     1
290
     1
176
     1
290
     1
176
     1
290
     0
176
     1
290
     0
176
     1
290
     0
176
     1
290
     0
176
     1
290
     0
176
     1
290
     0
176
     1
 90
       50
176
     1
 40
0.0
176
     1
 40
1.0
176
     1
 90
        0
176
     1
 62
    18
420
        0
176
     1
 90
       50
176
     1
 90
        3
176
     1
 62
     5
420
      255
176
     1
290
     0
176
     1
 90
       50
176
     1
 90
       50
176
     1
 90
       50
176
     1
290
     0
176
     1
 90
       50
176
     1
 62
   256
176
     0
 40
1.0
176
     0
 90
        2
176
     1
  1
strokes_ogs.tif
176
     1
290
     0
176
     1
 40
1.0
176
     1
 40
1.0
176
     1
  0
VISUALSTYLE
  5
C4
102
{ACAD_REACTORS
330
C3
102
}
330
C3
100
AcDbVisualStyle
  2
Flat
 70
     0
177
     3
291
     1
 70
    58
 90
        2
176
     1
 90
        1
176
     1
 90
        1
176
     1
 90
        2
176
     1
 40
0.6
176
     1
 40
30.0
176
     1
 62
     7
420
 16777215
176
     1
 90
        0
176
     1
 90
        0
176
     1
 62
     7
176
     1
 62
   257
176
     1
 90
        1
176
     1
 90
        1
176
     1
 40
1.0
176
     1
 90
        8
176
     1
 62
     7
176
     1
 40
1.0
176
     1
 90
        1
176
     1
 90
        6
176
     1
 90
        2
176
     1
 62
     7
176
     1
 90
        5
176
     1
 90
        0
176
     1
 90
        0
176
     1
290
     0
176
     1
 90
       13
176
     1
 40
0.0
176
     1
 90
        0
176
     1
290
     0
176
     1
290
     1
176
     1
290
     1
176
     1
290
     0
176
     1
290
     0
176
     1
290
     0
176
     1
290
     0
176
     1
290
     0
176
     1
290
     0
176
     1
 90
       50
176
     1
 40
0.0
176
     1
 40
1.0
176
     1
 90
        0
176
     1
 62
    18
420
        0
176
     1
 90
       50
176
     1
 90
        3
176
     1
 62
     5
420
      255
176
     1
290
     0
176
     1
 90
       50
176
     1
 90
       50
176
     1
 90
       50
176
     1
290
     0
176
     1
 90
       50
176
     1
 62
   256
176
     0
 40
1.0
176
     0
 90
        2
176
     1
  1
strokes_ogs.tif
176
     1
290
     0
176
     1
 40
1.0
176
     1
 40
1.0
176
     1
  0
VISUALSTYLE
  5
C5
102
{ACAD_REACTORS
330
C3
102
}
330
C3
100
AcDbVisualStyle
  2
FlatWithEdges
 70
     1
177
     3
291
     1
 70
    58
 90
        2
176
     1
 90
        1
176
     1
 90
        1
176
     1
 90
        2
176
     1
 40
0.6
176
     1
 40
30.0
176
     1
 62
     7
420
 16777215
176
     1
 90
        1
176
     1
 90
        0
176
     1
 62
     7
176
     1
 62
   257
176
     1
 90
        1
176
     1
 90
        1
176
     1
 40
1.0
176
     1
 90
        0
176
     1
 62
   257
176
     1
 40
1.0
176
     1
 90
        1
176
     1
 90
        6
176
     1
 90
        2
176
     1
 62
     7
176
     1
 90
        5
176
     1
 90
        0
176
     1
 90
        0
176
     1
290
     0
176
     1
 90
       13
176
     1
 40
0.0
176
     1
 90
        0
176
     1
290
     0
176
     1
290
     1
176
     1
290
     1
176
     1
290
     0
176
     1
290
     0
176
     1
290
     0
176
     1
290
     0
176
     1
290
     0
176
     1
290
     0
176
     1
 90
       50
176
     1
 40
0.0
176
     1
 40
1.0
176
     1
 90
        0
176
     1
 62
    18
420
        0
176
     1
 90
       50
176
     1
 90
        3
176
     1
 62
     5
420
      255
176
     1
290
     0
176
     1
 90
       50
176
     1
 90
       50
176
     1
 90
       50
176
     1
290
     0
176
     1
 90
       50
176
     1
 62
   256
176
     0
 40
1.0
176
     0
 90
        2
176
     1
  1
strokes_ogs.tif
176
     1
290
     0
176
     1
 40
1.0
176
     1
 40
1.0
176
     1
  0
VISUALSTYLE
  5
C6
102
{ACAD_REACTORS
330
C3
102
}
330
C3
100
AcDbVisualStyle
  2
Gouraud
 70
     2
177
     3
291
     1
 70
    58
 90
        2
176
     1
 90
        2
176
     1
 90
        1
176
     1
 90
        2
176
     1
 40
0.6
176
     1
 40
30.0
176
     1
 62
     7
420
 16777215
176
     1
 90
        0
176
     1
 90
        0
176
     1
 62
     7
176
     1
 62
   257
176
     1
 90
        1
176
     1
 90
        1
176
     1
 40
1.0
176
     1
 90
        0
176
     1
 62
     7
176
     1
 40
1.0
176
     1
 90
        1
176
     1
 90
        6
176
     1
 90
        2
176
     1
 62
     7
176
     1
 90
        5
176
     1
 90
        0
176
     1
 90
        0
176
     1
290
     0
176
     1
 90
       13
176
     1
 40
0.0
176
     1
 90
        0
176
     1
290
     0
176
     1
290
     1
176
     1
290
     1
176
     1
290
     0
176
     1
290
     0
176
     1
290
     0
176
     1
290
     0
176
     1
290
     0
176
     1
290
     0
176
     1
 90
       50
176
     1
 40
0.0
176
     1
 40
1.0
176
     1
 90
        0
176
     1
 62
    18
420
        0
176
     1
 90
       50
176
     1
 90
        3
176
     1
 62
     5
420
      255
176
     1
290
     0
176
     1
 90
       50
176
     1
 90
       50
176
     1
 90
       50
176
     1
290
     0
176
     1
 90
       50
176
     1
 62
   256
176
     0
 40
1.0
176
     0
 90
        2
176
     1
  1
strokes_ogs.tif
176
     1
290
     0
176
     1
 40
1.0
176
     1
 40
1.0
176
     1
  0
VISUALSTYLE
  5
C7
102
{ACAD_REACTORS
330
C3
102
}
330
C3
100
AcDbVisualStyle
  2
GouraudWithEdges
 70
     3
177
     3
291
     1
 70
    58
 90
        2
176
     1
 90
        2
176
     1
 90
        1
176
     1
 90
        2
176
     1
 40
0.6
176
     1
 40
30.0
176
     1
 62
     7
420
 16777215
176
     1
 90
        1
176
     1
 90
        0
176
     1
 62
     7
176
     1
 62
   257
176
     1
 90
        1
176
     1
 90
        1
176
     1
 40
1.0
176
     1
 90
        0
176
     1
 62
   257
176
     1
 40
1.0
176
     1
 90
        1
176
     1
 90
        6
176
     1
 90
        2
176
     1
 62
     7
176
     1
 90
        5
176
     1
 90
        0
176
     1
 90
        0
176
     1
290
     0
176
     1
 90
       13
176
     1
 40
0.0
176
     1
 90
        0
176
     1
290
     0
176
     1
290
     1
176
     1
290
     1
176
     1
290
     0
176
     1
290
     0
176
     1
290
     0
176
     1
290
     0
176
     1
290
     0
176
     1
290
     0
176
     1
 90
       50
176
     1
 40
0.0
176
     1
 40
1.0
176
     1
 90
        0
176
     1
 62
    18
420
        0
176
     1
 90
       50
176
     1
 90
        3
176
     1
 62
     5
420
      255
176
     1
290
     0
176
     1
 90
       50
176
     1
 90
       50
176
     1
 90
       50
176
     1
290
     0
176
     1
 90
       50
176
     1
 62
   256
176
     0
 40
1.0
176
     0
 90
        2
176
     1
  1
strokes_ogs.tif
176
     1
290
     0
176
     1
 40
1.0
176
     1
 40
1.0
176
     1
  0
VISUALSTYLE
  5
CB
102
{ACAD_REACTORS
330
C3
102
}
330
C3
100
AcDbVisualStyle
  2
Hidden
 70
     6
177
     3
291
     0
 70
    58
 90
        1
176
     1
 90
        2
176
     1
 90
        2
176
     1
 90
        0
176
     1
 40
0.6
176
     1
 40
30.0
176
     1
 62
     7
420
 16777215
176
     1
 90
        2
176
     1
 90
        2
176
     1
 62
     7
176
     1
 62
   257
176
     1
 90
        2
176
     1
 90
        1
176
     1
 40
40.0
176
     1
 90
        0
176
     1
 62
   257
176
     1
 40
1.0
176
     1
 90
        1
176
     1
 90
        6
176
     1
 90
        2
176
     1
 62
     7
176
     1
 90
        3
176
     1
 90
        0
176
     1
 90
        0
176
     1
290
     0
176
     1
 90
        1
176
     1
 40
0.0
176
     1
 90
        0
176
     1
290
     0
176
     1
290
     1
176
     1
290
     1
176
     1
290
     0
176
     1
290
     0
176
     1
290
     0
176
     1
290
     0
176
     1
290
     0
176
     1
290
     0
176
     1
 90
       50
176
     1
 40
0.0
176
     1
 40
1.0
176
     1
 90
        0
176
     1
 62
    18
420
        0
176
     1
 90
       50
176
     1
 90
        3
176
     1
 62
     5
420
      255
176
     1
290
     0
176
     1
 90
       50
176
     1
 90
       50
176
     1
 90
       50
176
     1
290
     0
176
     1
 90
       50
176
     1
 62
   256
176
     0
 40
1.0
176
     0
 90
        2
176
     1
  1
strokes_ogs.tif
176
     1
290
     0
176
     1
 40
1.0
176
     1
 40
1.0
176
     1
  0
VISUALSTYLE
  5
D9
102
{ACAD_REACTORS
330
C3
102
}
330
C3
100
AcDbVisualStyle
  2
JitterOff
 70
    20
177
     3
291
     1
 70
    58
 90
        2
176
     0
 90
        2
176
     0
 90
        0
176
     0
 90
        0
176
     0
 40
0.6
176
     0
 40
30.0
176
     0
 62
     7
420
 16777215
176
     0
 90
        1
176
     0
 90
        4
176
     0
 62
     7
176
     0
 62
   257
176
     0
 90
        1
176
     0
 90
        1
176
     0
 40
1.0
176
     0
 90
       10
176
     2
 62
     7
176
     0
 40
1.0
176
     0
 90
        1
176
     0
 90
        6
176
     0
 90
        2
176
     0
 62
     7
176
     0
 90
        5
176
     0
 90
        0
176
     0
 90
        0
176
     0
290
     0
176
     0
 90
        1
176
     0
 40
0.0
176
     0
 90
        0
176
     0
290
     0
176
     0
290
     1
176
     0
290
     1
176
     0
290
     0
176
     0
290
     0
176
     0
290
     0
176
     0
290
     0
176
     0
290
     0
176
     0
290
     0
176
     0
 90
       50
176
     0
 40
0.0
176
     0
 40
1.0
176
     0
 90
        0
176
     0
 62
    18
420
        0
176
     0
 90
       50
176
     0
 90
        3
176
     0
 62
     5
420
      255
176
     0
290
     0
176
     0
 90
       50
176
     0
 90
       50
176
     0
 90
       50
176
     0
290
     0
176
     0
 90
       50
176
     0
 62
   256
176
     0
 40
1.0
176
     0
 90
        2
176
     0
  1
strokes_ogs.tif
176
     0
290
     0
176
     0
 40
1.0
176
     0
 40
1.0
176
     0
  0
VISUALSTYLE
  5
D1
102
{ACAD_REACTORS
330
C3
102
}
330
C3
100
AcDbVisualStyle
  2
Linepattern
 70
    14
177
     3
291
     1
 70
    58
 90
        2
176
     1
 90
        2
176
     1
 90
        0
176
     1
 90
        0
176
     1
 40
0.6
176
     1
 40
30.0
176
     1
 62
     7
420
 16777215
176
     1
 90
        1
176
     1
 90
        4
176
     1
 62
     7
176
     1
 62
   257
176
     1
 90
        7
176
     1
 90
        7
176
     1
 40
1.0
176
     1
 90
        8
176
     1
 62
     7
176
     1
 40
1.0
176
     1
 90
        1
176
     1
 90
        6
176
     1
 90
        2
176
     1
 62
     7
176
     1
 90
        5
176
     1
 90
        0
176
     1
 90
        0
176
     1
290
     0
176
     1
 90
        1
176
     1
 40
0.0
176
     1
 90
        0
176
     1
290
     0
176
     1
290
     1
176
     1
290
     1
176
     1
290
     0
176
     1
290
     0
176
     1
290
     0
176
     1
290
     0
176
     1
290
     0
176
     1
290
     0
176
     1
 90
       50
176
     1
 40
0.0
176
     1
 40
1.0
176
     1
 90
        0
176
     1
 62
    18
420
        0
176
     1
 90
       50
176
     1
 90
        3
176
     1
 62
     5
420
      255
176
     1
290
     0
176
     1
 90
       50
176
     1
 90
       50
176
     1
 90
       50
176
     1
290
     0
176
     1
 90
       50
176
     1
 62
   256
176
     0
 40
1.0
176
     0
 90
        2
176
     1
  1
strokes_ogs.tif
176
     1
290
     0
176
     1
 40
1.0
176
     1
 40
1.0
176
     1
  0
VISUALSTYLE
  5
DA
102
{ACAD_REACTORS
330
C3
102
}
330
C3
100
AcDbVisualStyle
  2
OverhangOff
 70
    21
177
     3
291
     1
 70
    58
 90
        2
176
     0
 90
        2
176
     0
 90
        0
176
     0
 90
        0
176
     0
 40
0.6
176
     0
 40
30.0
176
     0
 62
     7
420
 16777215
176
     0
 90
        1
176
     0
 90
        4
176
     0
 62
     7
176
     0
 62
   257
176
     0
 90
        1
176
     0
 90
        1
176
     0
 40
1.0
176
     0
 90
        9
176
     2
 62
     7
176
     0
 40
1.0
176
     0
 90
        1
176
     0
 90
        6
176
     0
 90
        2
176
     0
 62
     7
176
     0
 90
        5
176
     0
 90
        0
176
     0
 90
        0
176
     0
290
     0
176
     0
 90
        1
176
     0
 40
0.0
176
     0
 90
        0
176
     0
290
     0
176
     0
290
     1
176
     0
290
     1
176
     0
290
     0
176
     0
290
     0
176
     0
290
     0
176
     0
290
     0
176
     0
290
     0
176
     0
290
     0
176
     0
 90
       50
176
     0
 40
0.0
176
     0
 40
1.0
176
     0
 90
        0
176
     0
 62
    18
420
        0
176
     0
 90
       50
176
     0
 90
        3
176
     0
 62
     5
420
      255
176
     0
290
     0
176
     0
 90
       50
176
     0
 90
       50
176
     0
 90
       50
176
     0
290
     0
176
     0
 90
       50
176
     0
 62
   256
176
     0
 40
1.0
176
     0
 90
        2
176
     0
  1
strokes_ogs.tif
176
     0
290
     0
176
     0
 40
1.0
176
     0
 40
1.0
176
     0
  0
VISUALSTYLE
  5
CD
102
{ACAD_REACTORS
330
C3
102
}
330
C3
100
AcDbVisualStyle
  2
Realistic
 70
     8
177
     3
291
     0
 70
    58
 90
        2
176
     1
 90
        3
176
     1
 90
        0
176
     1
 90
        2
176
     1
 40
0.6
176
     1
 40
30.0
176
     1
 62
     7
420
 16777215
176
     1
 90
        0
176
     1
 90
        0
176
     1
 62
     7
176
     1
 62
   257
176
     1
 90
        1
176
     1
 90
        1
176
     1
 40
1.0
176
     1
 90
        8
176
     1
 62
   257
176
     1
 40
1.0
176
     1
 90
        1
176
     1
 90
        6
176
     1
 90
        2
176
     1
 62
     7
176
     1
 90
        3
176
     1
 90
        0
176
     1
 90
        0
176
     1
290
     0
176
     1
 90
       13
176
     1
 40
0.0
176
     1
 90
        0
176
     1
290
     0
176
     1
290
     1
176
     1
290
     1
176
     1
290
     0
176
     1
290
     0
176
     1
290
     0
176
     1
290
     0
176
     1
290
     0
176
     1
290
     0
176
     1
 90
       50
176
     1
 40
0.0
176
     1
 40
1.0
176
     1
 90
        0
176
     1
 62
    18
420
        0
176
     1
 90
       50
176
     1
 90
        3
176
     1
 62
     5
420
      255
176
     1
290
     0
176
     1
 90
       50
176
     1
 90
       50
176
     1
 90
       50
176
     1
290
     0
176
     1
 90
       50
176
     1
 62
   256
176
     0
 40
1.0
176
     0
 90
        2
176
     1
  1
strokes_ogs.tif
176
     1
290
     0
176
     1
 40
1.0
176
     1
 40
1.0
176
     1
  0
VISUALSTYLE
  5
D8
102
{ACAD_REACTORS
330
C3
102
}
330
C3
100
AcDbVisualStyle
  2
Shaded
 70
    27
177
     3
291
     0
 70
    58
 90
        2
176
     1
 90
        2
176
     1
 90
        1
176
     1
 90
        2
176
     1
 40
0.6
176
     1
 40
30.0
176
     1
 62
     7
420
 16777215
176
     1
 90
        0
176
     1
 90
        4
176
     1
 62
     7
176
     1
 62
   257
176
     1
 90
        1
176
     1
 90
        1
176
     1
 40
1.0
176
     1
 90
        8
176
     1
 62
   257
176
     1
 40
1.0
176
     1
 90
        1
176
     1
 90
        6
176
     1
 90
        2
176
     1
 62
     8
420
  7895160
176
     1
 90
        3
176
     1
 90
        0
176
     1
 90
        0
176
     1
290
     0
176
     1
 90
        5
176
     1
 40
0.0
176
     1
 90
        0
176
     1
290
     0
176
     1
290
     1
176
     1
290
     1
176
     1
290
     0
176
     1
290
     0
176
     1
290
     0
176
     1
290
     0
176
     1
290
     0
176
     1
290
     0
176
     1
 90
       50
176
     1
 40
0.0
176
     1
 40
1.0
176
     1
 90
        0
176
     1
 62
    18
420
        0
176
     1
 90
       50
176
     1
 90
        3
176
     1
 62
     5
420
      255
176
     1
290
     0
176
     1
 90
       50
176
     1
 90
       50
176
     1
 90
       50
176
     1
290
     0
176
     1
 90
       50
176
     1
 62
   256
176
     0
 40
1.0
176
     0
 90
        2
176
     1
  1
strokes_ogs.tif
176
     1
290
     0
176
     1
 40
1.0
176
     1
 40
1.0
176
     1
  0
VISUALSTYLE
  5
D7
102
{ACAD_REACTORS
330
C3
102
}
330
C3
100
AcDbVisualStyle
  2
Shaded with edges
 70
    26
177
     3
291
     0
 70
    58
 90
        2
176
     1
 90
        2
176
     1
 90
        1
176
     1
 90
        2
176
     1
 40
0.6
176
     1
 40
30.0
176
     1
 62
     7
420
 16777215
176
     1
 90
        1
176
     1
 90
       10
176
     1
 62
     7
176
     1
 62
   257
176
     1
 90
        2
176
     1
 90
        1
176
     1
 40
1.0
176
     1
 90
        8
176
     1
 62
   257
176
     1
 40
1.0
176
     1
 90
        1
176
     1
 90
        6
176
     1
 90
        2
176
     1
 62
     7
176
     1
 90
        3
176
     1
 90
        0
176
     1
 90
        0
176
     1
290
     0
176
     1
 90
        5
176
     1
 40
0.0
176
     1
 90
        0
176
     1
290
     0
176
     1
290
     1
176
     1
290
     1
176
     1
290
     0
176
     1
290
     0
176
     1
290
     0
176
     1
290
     0
176
     1
290
     0
176
     1
290
     0
176
     1
 90
       50
176
     1
 40
0.0
176
     1
 40
1.0
176
     1
 90
        0
176
     1
 62
    18
420
        0
176
     1
 90
       50
176
     1
 90
        3
176
     1
 62
     5
420
      255
176
     1
290
     0
176
     1
 90
       50
176
     1
 90
       50
176
     1
 90
       50
176
     1
290
     0
176
     1
 90
       50
176
     1
 62
   256
176
     0
 40
1.0
176
     0
 90
        2
176
     1
  1
strokes_ogs.tif
176
     1
290
     0
176
     1
 40
1.0
176
     1
 40
1.0
176
     1
  0
VISUALSTYLE
  5
D4
102
{ACAD_REACTORS
330
C3
102
}
330
C3
100
AcDbVisualStyle
  2
Shades of Gray
 70
    23
177
     3
291
     0
 70
    58
 90
        2
176
     1
 90
        2
176
     1
 90
        3
176
     1
 90
        0
176
     1
 40
0.6
176
     1
 40
30.0
176
     1
 62
     7
420
 16777215
176
     1
 90
        2
176
     1
 90
        2
176
     1
 62
     7
176
     1
 62
     7
176
     1
 90
        1
176
     1
 90
        1
176
     1
 40
40.0
176
     1
 90
        8
176
     1
 62
     7
176
     1
 40
1.0
176
     1
 90
        1
176
     1
 90
        6
176
     1
 90
        2
176
     1
 62
     7
176
     1
 90
        3
176
     1
 90
        0
176
     1
 90
        0
176
     1
290
     0
176
     1
 90
        1
176
     1
 40
0.0
176
     1
 90
        0
176
     1
290
     0
176
     1
290
     1
176
     1
290
     1
176
     1
290
     0
176
     1
290
     0
176
     1
290
     0
176
     1
290
     0
176
     1
290
     0
176
     1
290
     0
176
     1
 90
       50
176
     1
 40
0.0
176
     1
 40
1.0
176
     1
 90
        0
176
     1
 62
    18
420
        0
176
     1
 90
       50
176
     1
 90
        3
176
     1
 62
     5
420
      255
176
     1
290
     0
176
     1
 90
       50
176
     1
 90
       50
176
     1
 90
       50
176
     1
290
     0
176
     1
 90
       50
176
     1
 62
   256
176
     0
 40
1.0
176
     0
 90
        2
176
     1
  1
strokes_ogs.tif
176
     1
290
     0
176
     1
 40
1.0
176
     1
 40
1.0
176
     1
  0
VISUALSTYLE
  5
D5
102
{ACAD_REACTORS
330
C3
102
}
330
C3
100
AcDbVisualStyle
  2
Sketchy
 70
    24
177
     3
291
     0
 70
    58
 90
        1
176
     1
 90
        2
176
     1
 90
        2
176
     1
 90
        0
176
     1
 40
0.6
176
     1
 40
30.0
176
     1
 62
     7
420
 16777215
176
     1
 90
        2
176
     1
 90
        2
176
     1
 62
     7
176
     1
 62
     7
176
     1
 90
        1
176
     1
 90
        1
176
     1
 40
40.0
176
     1
 90
       11
176
     1
 62
     7
176
     1
 40
1.0
176
     1
 90
        1
176
     1
 90
        6
176
     1
 90
        2
176
     1
 62
     7
176
     1
 90
        6
176
     1
 90
        0
176
     1
 90
        0
176
     1
290
     0
176
     1
 90
        1
176
     1
 40
0.0
176
     1
 90
        0
176
     1
290
     0
176
     1
290
     1
176
     1
290
     1
176
     1
290
     0
176
     1
290
     0
176
     1
290
     0
176
     1
290
     0
176
     1
290
     0
176
     1
290
     0
176
     1
 90
       50
176
     1
 40
0.0
176
     1
 40
1.0
176
     1
 90
        0
176
     1
 62
    18
420
        0
176
     1
 90
       50
176
     1
 90
        3
176
     1
 62
     5
420
      255
176
     1
290
     0
176
     1
 90
       50
176
     1
 90
       50
176
     1
 90
       50
176
     1
290
     0
176
     1
 90
       50
176
     1
 62
   256
176
     0
 40
1.0
176
     0
 90
        2
176
     1
  1
strokes_ogs.tif
176
     1
290
     0
176
     1
 40
1.0
176
     1
 40
1.0
176
     1
  0
VISUALSTYLE
  5
D0
102
{ACAD_REACTORS
330
C3
102
}
330
C3
100
AcDbVisualStyle
  2
Thicken
 70
    13
177
     3
291
     1
 70
    58
 90
        2
176
     1
 90
        2
176
     1
 90
        0
176
     1
 90
        0
176
     1
 40
0.6
176
     1
 40
30.0
176
     1
 62
     7
420
 16777215
176
     1
 90
        1
176
     1
 90
        4
176
     1
 62
     7
176
     1
 62
   257
176
     1
 90
        1
176
     1
 90
        1
176
     1
 40
1.0
176
     1
 90
       12
176
     1
 62
     7
176
     1
 40
1.0
176
     1
 90
        1
176
     1
 90
        6
176
     1
 90
        2
176
     1
 62
     7
176
     1
 90
        5
176
     1
 90
        0
176
     1
 90
        0
176
     1
290
     0
176
     1
 90
        1
176
     1
 40
0.0
176
     1
 90
        0
176
     1
290
     0
176
     1
290
     1
176
     1
290
     1
176
     1
290
     0
176
     1
290
     0
176
     1
290
     0
176
     1
290
     0
176
     1
290
     0
176
     1
290
     0
176
     1
 90
       50
176
     1
 40
0.0
176
     1
 40
1.0
176
     1
 90
        0
176
     1
 62
    18
420
        0
176
     1
 90
       50
176
     1
 90
        3
176
     1
 62
     5
420
      255
176
     1
290
     0
176
     1
 90
       50
176
     1
 90
       50
176
     1
 90
       50
176
     1
290
     0
176
     1
 90
       50
176
     1
 62
   256
176
     0
 40
1.0
176
     0
 90
        2
176
     1
  1
strokes_ogs.tif
176
     1
290
     0
176
     1
 40
1.0
176
     1
 40
1.0
176
     1
  0
VISUALSTYLE
  5
CA
102
{ACAD_REACTORS
330
C3
102
}
330
C3
100
AcDbVisualStyle
  2
Wireframe
 70
     5
177
     3
291
     0
 70
    58
 90
        0
176
     1
 90
        2
176
     1
 90
        0
176
     1
 90
        0
176
     1
 40
0.6
176
     1
 40
30.0
176
     1
 62
     7
420
 16777215
176
     1
 90
        1
176
     1
 90
        4
176
     1
 62
     7
176
     1
 62
   257
176
     1
 90
        1
176
     1
 90
        1
176
     1
 40
1.0
176
     1
 90
        0
176
     1
 62
   257
176
     1
 40
1.0
176
     1
 90
        1
176
     1
 90
        6
176
     1
 90
        2
176
     1
 62
     7
176
     1
 90
        3
176
     1
 90
        0
176
     1
 90
        0
176
     1
290
     0
176
     1
 90
        1
176
     1
 40
0.0
176
     1
 90
        0
176
     1
290
     0
176
     1
290
     1
176
     1
290
     1
176
     1
290
     0
176
     1
290
     0
176
     1
290
     0
176
     1
290
     0
176
     1
290
     0
176
     1
290
     0
176
     1
 90
       50
176
     1
 40
0.0
176
     1
 40
1.0
176
     1
 90
        0
176
     1
 62
    18
420
        0
176
     1
 90
       50
176
     1
 90
        3
176
     1
 62
     5
420
      255
176
     1
290
     0
176
     1
 90
       50
176
     1
 90
       50
176
     1
 90
       50
176
     1
290
     0
176
     1
 90
       50
176
     1
 62
   256
176
     0
 40
1.0
176
     0
 90
        2
176
     1
  1
strokes_ogs.tif
176
     1
290
     0
176
     1
 40
1.0
176
     1
 40
1.0
176
     1
  0
VISUALSTYLE
  5
D6
102
{ACAD_REACTORS
330
C3
102
}
330
C3
100
AcDbVisualStyle
  2
X-Ray
 70
    25
177
     3
291
     0
 70
    58
 90
        2
176
     1
 90
        2
176
     1
 90
        1
176
     1
 90
        1
176
     1
 40
0.5
176
     1
 40
30.0
176
     1
 62
     7
420
 16777215
176
     1
 90
        1
176
     1
 90
        0
176
     1
 62
     7
176
     1
 62
   257
176
     1
 90
        1
176
     1
 90
        1
176
     1
 40
1.0
176
     1
 90
        8
176
     1
 62
     7
176
     1
 40
1.0
176
     1
 90
        1
176
     1
 90
        6
176
     1
 90
        2
176
     1
 62
     7
176
     1
 90
        3
176
     1
 90
        0
176
     1
 90
        0
176
     1
290
     0
176
     1
 90
       13
176
     1
 40
0.0
176
     1
 90
        0
176
     1
290
     0
176
     1
290
     1
176
     1
290
     1
176
     1
290
     0
176
     1
290
     0
176
     1
290
     0
176
     1
290
     0
176
     1
290
     0
176
     1
290
     0
176
     1
 90
       50
176
     1
 40
0.0
176
     1
 40
1.0
176
     1
 90
        0
176
     1
 62
    18
420
        0
176
     1
 90
       50
176
     1
 90
        3
176
     1
 62
     5
420
      255
176
     1
290
     0
176
     1
 90
       50
176
     1
 90
       50
176
     1
 90
       50
176
     1
290
     0
176
     1
 90
       50
176
     1
 62
   256
176
     0
 40
1.0
176
     0
 90
        2
176
     1
  1
strokes_ogs.tif
176
     1
290
     0
176
     1
 40
1.0
176
     1
 40
1.0
176
     1
  0
DICTIONARYVAR
  5
101
102
{ACAD_REACTORS
330
FB
102
}
330
FB
100
DictionaryVariables
280
     0
  1
1:1
  0
DICTIONARYVAR
  5
FD
102
{ACAD_REACTORS
330
FB
102
}
330
FB
100
DictionaryVariables
280
     0
  1
STANDARD
  0
DICTIONARYVAR
  5
FC
102
{ACAD_REACTORS
330
FB
102
}
330
FB
100
DictionaryVariables
280
     0
  1
STANDARD
  0
DICTIONARYVAR
  5
FE
102
{ACAD_REACTORS
330
FB
102
}
330
FB
100
DictionaryVariables
280
     0
  1
Imperial24
  0
DICTIONARYVAR
  5
FF
102
{ACAD_REACTORS
330
FB
102
}
330
FB
100
DictionaryVariables
280
     0
  1
Imperial24
  0
DICTIONARYVAR
  5
103
102
{ACAD_REACTORS
330
FB
102
}
330
FB
100
DictionaryVariables
280
     0
  1
1
  0
DICTIONARYVAR
  5
104
102
{ACAD_REACTORS
330
FB
102
}
330
FB
100
DictionaryVariables
280
     0
  1
15
  0
DICTIONARYVAR
  5
102
102
{ACAD_REACTORS
330
FB
102
}
330
FB
100
DictionaryVariables
280
     0
  1
0
  0
DICTIONARYVAR
  5
100
102
{ACAD_REACTORS
330
FB
102
}
330
FB
100
DictionaryVariables
280
     0
  1
0
  0
DICTIONARY
  5
109
330
F6
100
AcDbDictionary
280
     1
281
     1
  3
ACAD_XREC_ROUNDTRIP
360
10A
  0
DICTIONARY
  5
B4
330
B3
100
AcDbDictionary
280
     1
281
     1
  3
BUMPTILE
360
B6
  3
DIFFUSETILE
360
B5
  3
OPACITYTILE
360
B9
  3
REFLECTIONTILE
360
B8
  3
REFRACTIONTILE
360
BA
  3
SPECULARTILE
360
B7
  0
DICTIONARY
  5
AC
330
AB
100
AcDbDictionary
280
     1
281
     1
  3
BUMPTILE
360
AE
  3
DIFFUSETILE
360
AD
  3
OPACITYTILE
360
B1
  3
REFLECTIONTILE
360
B0
  3
REFRACTIONTILE
360
B2
  3
SPECULARTILE
360
AF
  0
DICTIONARY
  5
BC
330
BB
100
AcDbDictionary
280
     1
281
     1
  3
BUMPTILE
360
BE
  3
DIFFUSETILE
360
BD
  3
OPACITYTILE
360
C1
  3
REFLECTIONTILE
360
C0
  3
REFRACTIONTILE
360
C2
  3
SPECULARTILE
360
BF
  0
DICTIONARY
  5
107
330
F4
100
AcDbDictionary
280
     1
281
     1
  3
ACAD_XREC_ROUNDTRIP
360
108
  0
DICTIONARY
  5
105
330
DE
100
AcDbDictionary
280
     1
281
     1
  3
ACAD_ROUNDTRIP_2008_TABLESTYLE_CELLSTYLEMAP
360
106
  0
XRECORD
  5
10A
102
{ACAD_REACTORS
330
109
102
}
330
109
100
AcDbXrecord
280
     1
102
DISPLAYNAME
  1
Imperial24
102
FLAGS
 90
        0
  0
XRECORD
  5
B6
102
{ACAD_REACTORS
330
B4
102
}
330
B4
100
AcDbXrecord
280
     1
270
     1
271
     1
  0
XRECORD
  5
B5
102
{ACAD_REACTORS
330
B4
102
}
330
B4
100
AcDbXrecord
280
     1
270
     1
271
     1
  0
XRECORD
  5
B9
102
{ACAD_REACTORS
330
B4
102
}
330
B4
100
AcDbXrecord
280
     1
270
     1
271
     1
  0
XRECORD
  5
B8
102
{ACAD_REACTORS
330
B4
102
}
330
B4
100
AcDbXrecord
280
     1
270
     1
271
     1
  0
XRECORD
  5
BA
102
{ACAD_REACTORS
330
B4
102
}
330
B4
100
AcDbXrecord
280
     1
270
     1
271
     1
  0
XRECORD
  5
B7
102
{ACAD_REACTORS
330
B4
102
}
330
B4
100
AcDbXrecord
280
     1
270
     1
271
     1
  0
XRECORD
  5
AE
102
{ACAD_REACTORS
330
AC
102
}
330
AC
100
AcDbXrecord
280
     1
270
     1
271
     1
  0
XRECORD
  5
AD
102
{ACAD_REACTORS
330
AC
102
}
330
AC
100
AcDbXrecord
280
     1
270
     1
271
     1
  0
XRECORD
  5
B1
102
{ACAD_REACTORS
330
AC
102
}
330
AC
100
AcDbXrecord
280
     1
270
     1
271
     1
  0
XRECORD
  5
B0
102
{ACAD_REACTORS
330
AC
102
}
330
AC
100
AcDbXrecord
280
     1
270
     1
271
     1
  0
XRECORD
  5
B2
102
{ACAD_REACTORS
330
AC
102
}
330
AC
100
AcDbXrecord
280
     1
270
     1
271
     1
  0
XRECORD
  5
AF
102
{ACAD_REACTORS
330
AC
102
}
330
AC
100
AcDbXrecord
280
     1
270
     1
271
     1
  0
XRECORD
  5
BE
102
{ACAD_REACTORS
330
BC
102
}
330
BC
100
AcDbXrecord
280
     1
270
     1
271
     1
  0
XRECORD
  5
BD
102
{ACAD_REACTORS
330
BC
102
}
330
BC
100
AcDbXrecord
280
     1
270
     1
271
     1
  0
XRECORD
  5
C1
102
{ACAD_REACTORS
330
BC
102
}
330
BC
100
AcDbXrecord
280
     1
270
     1
271
     1
  0
XRECORD
  5
C0
102
{ACAD_REACTORS
330
BC
102
}
330
BC
100
AcDbXrecord
280
     1
270
     1
271
     1
  0
XRECORD
  5
C2
102
{ACAD_REACTORS
330
BC
102
}
330
BC
100
AcDbXrecord
280
     1
270
     1
271
     1
  0
XRECORD
  5
BF
102
{ACAD_REACTORS
330
BC
102
}
330
BC
100
AcDbXrecord
280
     1
270
     1
271
     1
  0
XRECORD
  5
108
102
{ACAD_REACTORS
330
107
102
}
330
107
100
AcDbXrecord
280
     1
102
DISPLAYNAME
  1
Imperial24
102
FLAGS
 90
        0
  0
CELLSTYLEMAP
  5
106
102
{ACAD_REACTORS
330
105
102
}
330
105
100
AcDbCellStyleMap
 90
        3
300
CELLSTYLE
  1
TABLEFORMAT_BEGIN
 90
        5
170
     1
 91
        0
 92
    32768
 62
   257
 93
        1
300
CONTENTFORMAT
  1
CONTENTFORMAT_BEGIN
 90
        0
 91
        0
 92
      512
 93
        0
300

 40
0.0
140
1.0
 94
        5
 62
     0
340
11
144
0.25
309
CONTENTFORMAT_END
171
     0
 94
        0
309
TABLEFORMAT_END
  1
CELLSTYLE_BEGIN
 90
        1
 91
        1
300
_TITLE
309
CELLSTYLE_END
300
CELLSTYLE
  1
TABLEFORMAT_BEGIN
 90
        5
170
     1
 91
        0
 92
        0
 62
   257
 93
        1
300
CONTENTFORMAT
  1
CONTENTFORMAT_BEGIN
 90
        0
 91
        0
 92
      512
 93
        0
300

 40
0.0
140
1.0
 94
        5
 62
     0
340
11
144
0.18
309
CONTENTFORMAT_END
171
     0
 94
        0
309
TABLEFORMAT_END
  1
CELLSTYLE_BEGIN
 90
        2
 91
        1
300
_HEADER
309
CELLSTYLE_END
300
CELLSTYLE
  1
TABLEFORMAT_BEGIN
 90
        5
170
     1
 91
        0
 92
        0
 62
   257
 93
        1
300
CONTENTFORMAT
  1
CONTENTFORMAT_BEGIN
 90
        0
 91
        0
 92
      512
 93
        0
300

 40
0.0
140
1.0
 94
        2
 62
     0
340
11
144
0.18
309
CONTENTFORMAT_END
171
     0
 94
        0
309
TABLEFORMAT_END
  1
CELLSTYLE_BEGIN
 90
        3
 91
        2
300
_DATA
309
CELLSTYLE_END
  0
ENDSEC
  0
EOF
